Cifra Club

Breathe

Angels & Airwaves

Cifra: Principal (violão e guitarra)
Tom: C
|---5--5---7--5(x2)----------|
|----------------------------|
|----------------------------|
|----------------------------|
|------------------4-5-------|
|----------------------------|

|----------------------------------------------|
|----------------------------------------------|
|-----7--6--5-7--6--5-7--6--5-7--6--5----------|
|----------------------------------------------|
|----------------------------------------------|
|----------------------------------------------|

|----------------------------------------------|
|----2-2-2-2-2-2-2-2---3-3-3-3-3-3-3-3---------|
|----2-2-2-2-2-2-2-2---2-2-2-2-2-2-2-2---------|
|----2-2-2-2-2-2-2-2---0-0-0-0-0-0-0-0---------|
|----0-0-0-0-0-0-0-0---------------------------|
|----------------------------------------------|

|---------------------------------------------------------------------|
|---------------------------------------------------------------------|
|----6--6-----6/7----7/9----6/7---7/6-6---6/7---7/9---6/7---7/6-------|
|---------------------------------------------------------------------|
|------------0-------0-------0-----0------0-------0------0-----0------|
|---------------------------------------------------------------------|

|---------------------------------------------------------------------|
|--22-3-5---(vai e volta assim)---------------------------------------|
|--22-2-2-------------------------------------------------------------|
|---------------------------------------------------------------------|
|---------------------------------------------------------------------|
|---------------------------------------------------------------------|

|-------------------------------------------------------------------------|
|-------------------------------------------------------------------------|
|----22222222222222222-------------222222222222222------------------------|
|----22222222222222222-------------222222222222222------------------------|
|-------------------------------00000---------------------------00000-----|
|-------------------------------------------------------------------------|

|-------------------------------------------------------------------------------|
|----2------4------7-----4-----2-----4-----7-----4------------------------------|
|----2------4------7-----4-----2-----4-----7-----4------------------------------|
|----2------4------7-----4-----2-----4-----7-----4------------------------------|
|----0------2------5-----2-----0-----2-----5-----2------------------------------|
|-------------------------------------------------------------------------------|

|-------|
|---2---|
|---2---|
|-------|
|-------|
|-------|
exibições 5.827
Acordes para:

    0 comentários

    mostrar mais comentários

    Conseguiu tocar?

    0 tocaram 0 ainda não

    Grave um vídeo tocando Breathe e mande pra gente!

    00:00 / 00:00
    outros vídeos desta música
    repetir qualidade Automático
    Outros vídeos desta música
    00:00 / 00:00
    Automático
    OK