Cifra Club

Aprenda

Distraction

Angels & Airwaves

Cifra: Versão 4 (violão e guitarra)
Tom: C
Tabbed By: Lucas Van Niekerk
E-mail: *


INTRO:
Guitar 1: (Delay)
e|-12-12-12-12--10-10-10-10--|
B|-13-13-13-13--8--8--8--8---|
G|---------------------------| Repeat About 14 Times
D|---------------------------| 
A|---------------------------|
E|---------------------------|

Guitar 2: (Fade In With Delay)
e|------------------------------------|
B|------------------------------------|
G|-12-12-12--12-12--12-12-12----------| Repeat About 24 Times
D|---------------------------15-14-12-|
A|------------------------------------|
E|------------------------------------|

CHORUS:
Guitar 1: x2
e|-------------------------------------------------------|
B|-------------------------------------------------------|
G|-9999999-9\7--7777777-7\5--5555555-5/7--7777-7/9--10\9-|
D|-xxxxxxx-x\x--xxxxxxx-x\x--xxxxxxx-x/x--xxxx-x/x---x\x-|
A|-7777777-7\5--5555555-5\3--3333333-3/5--5555-5/7---8\7-|
E|-------------------------------------------------------|

Guitar 2: x8
e|-12-12-12-12-12-12-12-12--10-10-10-10-10-10-10-10-|
B|-13-13-13-13-13-13-13-13--8--8--8--8--8--8--8--8--|
G|--------------------------------------------------| 
D|--------------------------------------------------| 
A|--------------------------------------------------|
E|--------------------------------------------------|

VERSE 1: (Delay)
Guitar 1:
e|-12-12-12-12--10-10-10-10-|
B|-13-13-13-13--8--8--8--8--|
G|--------------------------| Repeat About 8 Times
D|--------------------------|
A|--------------------------|
E|--------------------------|

CHORUS: 
Guitar 1: x2
e|-------------------------------------------------------|
B|-------------------------------------------------------|
G|-9999999-9\7--7777777-7\5--5555555-5/7--7777-7/9--10\9-|
D|-xxxxxxx-x\x--xxxxxxx-x\x--xxxxxxx-x/x--xxxx-x/x---x\x-|
A|-7777777-7\5--5555555-5\3--3333333-3/5--5555-5/7---8\7-|
E|-------------------------------------------------------|

Guitar 2: x8
e|-12-12-12-12-12-12-12-12--10-10-10-10-10-10-10-10-|
B|-13-13-13-13-13-13-13-13--8--8--8--8--8--8--8--8--|
G|--------------------------------------------------| 
D|--------------------------------------------------| 
A|--------------------------------------------------|
E|--------------------------------------------------|

VERSE 2: (Delay)
e|-12-12-12-12--10-10-10-10-|
B|-13-13-13-13--8--8--8--8--|
G|--------------------------| Repeat About 8 Times
D|--------------------------|
A|--------------------------|
E|--------------------------|

CHORUS:
Guitar 1: x2
e|-------------------------------------------------------|
B|-------------------------------------------------------|
G|-9999999-9\7--7777777-7\5--5555555-5/7--7777-7/9--10\9-|
D|-xxxxxxx-x\x--xxxxxxx-x\x--xxxxxxx-x/x--xxxx-x/x---x\x-|
A|-7777777-7\5--5555555-5\3--3333333-3/5--5555-5/7---8\7-|
E|-------------------------------------------------------|

Guitar 2: x8
e|-12-12-12-12-12-12-12-12--10-10-10-10-10-10-10-10-|
B|-13-13-13-13-13-13-13-13--8--8--8--8--8--8--8--8--|
G|--------------------------------------------------| 
D|--------------------------------------------------| 
A|--------------------------------------------------|
E|--------------------------------------------------|

FILL:
Piano Bit x2
e|-----------------------------------------------------------|
B|-----------------------------------------------------------|
G|---12-12-12-12----12-12-12-12---12-12-12-12----12-12-12-12-|
D|-10------------12-------------14------------15-------------|
A|-----------------------------------------------------------|
E|-----------------------------------------------------------|

Guitar 1: (Delay)
e|-12-12-12-12--10-10-10-10-|
B|-13-13-13-13--8--8--8--8--|
G|--------------------------| Repeat About 4 Times
D|--------------------------|
A|--------------------------|
E|--------------------------|

CHORUS:
Guitar 1: x4
e|-------------------------------------------------------|
B|-------------------------------------------------------|
G|-9999999-9\7--7777777-7\5--5555555-5/7--7777-7/9--10\9-|
D|-xxxxxxx-x\x--xxxxxxx-x\x--xxxxxxx-x/x--xxxx-x/x---x\x-|
A|-7777777-7\5--5555555-5\3--3333333-3/5--5555-5/7---8\7-|
E|-------------------------------------------------------|

Guitar 2: (Delay)
e|-12-12-12-12--10-10-10-10-|
B|-13-13-13-13--8--8--8--8--|
G|--------------------------| Repeat About 16 Times
D|--------------------------|
A|--------------------------|
E|--------------------------|

OUTRO:

Guitar 1 (Fade Out with Delay)
e|-12-12-12-12--10-10-10-10-|
B|-13-13-13-13--8--8--8--8--|
G|--------------------------| Repeat About 8 Times
D|--------------------------|
A|--------------------------|
E|--------------------------|

Guitar 2 (Fade Out With Delay)
e|------------------------------------|
B|------------------------------------|
G|-12-12-12--12-12--12-12-12----------| Repeat About 24 Times
D|---------------------------15-14-12-|
A|------------------------------------|
E|------------------------------------|

Legend:
| /  slide up
| \  slide down
| h  hammer-on
| p  pull-off
| ~  vibrato
| +  harmonic
| x  Mute note

Hope You Like It!
141 exibições
    • ½ Tom
    • A
    • Bb
    • B
    • C
    • Db
    • D
    • Eb
    • E
    • F
    • F#
    • G
    • Ab
  • Adicionar à lista

    0 comentários

    Mostrar mais comentários

    Conseguiu tocar?

    0 Tocaram 0 Ainda não

    Grave um vídeo tocando Distraction e mande pra gente!

    00:00 / 00:00
    outros vídeos desta música
    repetir qualidade Automático
    Outros vídeos desta música
    00:00 / 00:00
    Automático

    Cifra Club Pro

    Aproveite o Cifra Club com benefícios exclusivos e sem anúncios
    7 dias grátis
    Cifra Club Pro
    Aproveite o Cifra Club com benefícios exclusivos e sem anúncios
    7 dias grátis
    OK