Cifra Club

Distraction

Angels & Airwaves

Cifra: Versão 3 (violão e guitarra)
Tom: C
We Don't Need To Whisper

Intro:

E|-12-12-12-12-12-12-12-12-10-10-10-10-10-10-10-10--|
B|-13-13-13-13-13-13-13-13-13-13-13-13-13-13-13-13--|
G|--------------------------------------------------|
D|--------------------------------------------------|
A|--------------------------------------------------|
E|--------------------------------------------------|

Fade in:

E|--8--8--8--8--8--------|
B|---8--8--8--8--8-------|
G|-----------------10-9--|
D|-----------------------|
A|-----------------------|
E|-----------------------|

Pre-Verse "I'll be your distraction" (1:09)

E|---------------------------------------------------|
B|---------------------------------------------------|
G|--99999999--77777777--55555555--10-10-10-9-9-10-9--|
D|--xxxxxxxx--xxxxxxxx--xxxxxxxx--x--x--x--x-x-x--x--|
A|--77777777--55555555--33333333--8--8--8--7-7-8--7--|
E|---------------------------------------------------|

Verse: (1:30)

E|-12-12-12-12-12-12-12-12-10-10-10-10-10-10-10-10--|
B|-13-13-13-13-13-13-13-13-13-13-13-13-13-13-13-13--|
G|--------------------------------------------------|
D|--------------------------------------------------|
A|--------------------------------------------------|
E|--------------------------------------------------|

Chorus: (2:13)

E|-------------------------------------------------|
B|-------------------------------------------------|
G|--99999999--77777777--55555555--10-10-10-9-9-10--|
D|--xxxxxxxx--xxxxxxxx--xxxxxxxx--x--x--x--x-x-x---|
A|--77777777--55555555--33333333--8--8--8--7-7-8---|
E|-------------------------------------------------|

Verse: (2:34)

E|-12-12-12-12-12-12-12-12-10-10-10-10-10-10-10-10--|
B|-13-13-13-13-13-13-13-13-13-13-13-13-13-13-13-13--|
G|--------------------------------------------------|
D|--------------------------------------------------|
A|--------------------------------------------------|
E|--------------------------------------------------|

Chorus: (3:17)

E|-------------------------------------------------|
B|-------------------------------------------------|
G|--99999999--77777777--55555555--10-10-10-9-9-10--|
D|--xxxxxxxx--xxxxxxxx--xxxxxxxx--x--x--x--x-x-x---|
A|--77777777--55555555--33333333--8--8--8--7-7-8---|
E|-------------------------------------------------|

Interlude: (3:38)

Guitar 1:

E|-----------------------------------------|
B|-----------------------------------------|
G|--10-9--9-7--7-9-9h10--9--9-7--7-9-9h10--|
D|-----------------------------------------|
A|-----------------------------------------|
E|-----------------------------------------|

Guitar 2:

E|-------------------|
B|----8---8---8---8--|
G|--99--99--99--99---|
D|-------------------|
A|-------------------|
E|-------------------|

Chorus: (3:59)

E|-------------------------------------------------|
B|-------------------------------------------------|
G|--99999999--77777777--55555555--10-10-10-9-9-10--|
D|--xxxxxxxx--xxxxxxxx--xxxxxxxx--x--x--x--x-x-x---|
A|--77777777--55555555--33333333--8--8--8--7-7-8---|
E|-------------------------------------------------|

Bridge: "I'll be, I'll be yours" (4:42)

E|--8--8--8--8--8--------|
B|---8--8--8--8--8-------|
G|-----------------10-9--|
D|-----------------------|
A|-----------------------|
E|-----------------------|

That is the outro as well, play until fade out
exibições 160
Acordes para:

    0 comentários

    mostrar mais comentários

    Conseguiu tocar?

    0 tocaram 0 ainda não

    Grave um vídeo tocando Distraction e mande pra gente!

    00:00 / 00:00
    outros vídeos desta música
    repetir qualidade Automático
    Outros vídeos desta música
    00:00 / 00:00
    Automático
    OK