Cifra Club

Hallucinations

Angels & Airwaves

Cifra: Principal (violão e guitarra)
Tom: C
(0:50)

guitarra 1
E |----------------------------------------|
B |----5---6---5-------3---6---------------|
G |--5---5---5---5---5---5---5-4-5---------|
D |----------------------------------------|
A |----------------------------------------|
E |----------------------------------------| x4

guitarra 2
E |------------------------------------------|
B |------------------------------------------|
G |---5--7--10--5--7--10--2--------5--7--10--|
D |---5--7--10--5--7--10--2--5--3--5--7--10--|
A |---3--5--8---3--5--8---0--5--3--3--5--8---|
E |--------------------------3--1------------|

Verso: (guitarra 1 e 2)

       F5
And you look real close
              C5                G5
Cross the lines and the roads
      F5
It is there to decode
              C5                  G5
What you thought was a ghost
        F5         C5
Or a spark to explode
           C5             G5
It's the start of the show
           F5                      C5
It's the part you love the most
                 C5          G5
When your heart will implode within

C5                  D5                  C5 G5 F5
Do you believe in hallucinations, silly dreams or imaginations
C5                  D5
Don't go away cause I feel you this time
C5        G5     F5
Don't go away cause I need you there this time

(intro)
           F5
As the rain floats home
         C5            G5
Carry us back to shore
                F5
And up the mountainous coast
                C5              G5
Where the sun starts to glow
              F5               C5
From our head to our toes
          C5                G5
To the stars that we know
              F5            C5
And with you as my host
         C5        G5
It will keep us afloat again

C5                  D5                  C5 G5 F5
Do you believe in hallucinations, silly dreams or imaginations
C5                  D5
Don't go away cause I feel you this time
C5        G5     F5
Don't go away cause I need you there this time

C5                  D5                  C5 G5 F5
Do you believe in hallucinations, any dream or its revelation
C5                  D5
don't go away cause i need you here this time
C5        G5     F5
don't go away cause I'm making you all mine


The silence is taxing
I'm waiting for something
There's images of love and war
And everything's here to explore
It's all alike, unusual, a different place
But beautiful and it is not quite as it seems
I hear the children's laughs and screams

It's beautiful
So beautiful
It's beautiful

C5                  D5                  C5 G5 F5
Do you believe in hallucinations, silly dreams or imaginations
C5                  D5
Don't go away cause I feel you this time
C5        G5     F5
Don't go away cause I need you there this time

C5                  D5                  C5 G5 F5
Do you believe in hallucinations, any dream or its revelation
C5                  D5
don't go away cause i need you here this time
C5        G5     F5
don't go away cause I'm making you all mine

repete as notas do refrão

I'm making you all mine, I'm making you all mine

(final)
                              x3
E |------------------------------|---------------|
B |------------------------------|---------------|
G |------------------------------|----------5----|
D |------------------------------|----------5----|
A |-----3---3----------3---3-----|----------3----|
E |-0-0---0---0----1-1---1---1---|---------------|
exibições 2.121
Acordes para:
    Composição: Tom DeLonge Colaboração e revisão:
    • Douglas

    0 comentários

    mostrar mais comentários

    Conseguiu tocar?

    1 tocaram 0 ainda não

    Grave um vídeo tocando Hallucinations e mande pra gente!

    00:00 / 00:00
    outros vídeos desta música
    repetir qualidade Automático
    Outros vídeos desta música
    00:00 / 00:00
    Automático
    OK