Cifra Club

Heaven

Angels & Airwaves

Cifra: Principal (violão e guitarra)
Tom: A
Intro 1

Guitar 1 (Distortion)
e|---------------------------------------------------------------------------|
B|---------------------------------------------------------------------------|
G|---------------------------------------------------------------------------|   x 8
D|------77777----------------------------------------------------------------|
A|------77777----------------------------------------------------------------|
E|------55555----------------------------------------------------------------|

Guitar 2 (Clean)
e|---------------------------------------------------------------------------|
B|---------------------------------------------------------------------------|
G|-------6-6-4---7-6---------------------------------------------------------|   x 14
D|------7-7-7---6------------------------------------------------------------|
A|---------------------------------------------------------------------------|
E|---------------------------------------------------------------------------|

Guitar 3 (Distortion + Delay)
e|---------------------------------------------------------------------------|
B|---------------------------------------------------------------------------|
G|------9-----9-----9---6----7-----6-----------------------------------------|   x 10
D|--------7-7---7-7---7---7-7--7-7---7---------------------------------------|
A|---------------------------------------------------------------------------|
E|---------------------------------------------------------------------------|
          x x   x x   x   x x  x x   x

Intro 2

Guitar 1 (Distortion)
e|---------------------------------------------------------------------------|
B|---------------------------------------------------------------------------|
G|-------999999999666777666--------------------------------------------------|   x 8
D|-------777777777777777777--------------------------------------------------|
A|---------------------------------------------------------------------------|
E|---------------------------------------------------------------------------|

Guitar 2 (Distortion)
e|---------------------------------------------------------------------------|
B|---------------------------------------------------------------------------|
G|------------7~--6~--4~-----------------------------------------------------|   x 1
D|-------7~---7~--7~--4~-----------------------------------------------------|
A|-------7~---5~--4~--2~-----------------------------------------------------|
E|-------5~------------------------------------------------------------------|

Verse 1

Guitar 1 (Distortion)
e|---------------------------------------------------------------------------|
B|---------------------------------------------------------------------------|
G|----99999999777666---------------------------------------------------------|   x 8
D|----77777777777777---------------------------------------------------------|
A|---------------------------------------------------------------------------|
E|---------------------------------------------------------------------------|

Guitar 2 (Distortion)
e|---------------------------------------------------------------------------|
B|---------------------------------------------------------------------------|
G|--------7~------7~---------------------------------------------------------|   x 1
D|----7~--7~--7~--7~---------------------------------------------------------|
A|----7~--5~--7~--5~---------------------------------------------------------|
E|----5~------5~-------------------------------------------------------------|

Chorus

Guitar 1 (Distortion)
e|---------------------------------------------------------------------------|
B|---------------------------------------------------------------------------|
G|---------------------------------------------------------------------------|   x 4
D|------77777----------------------------------------------------------------|
A|------77777----------------------------------------------------------------|
E|------55555----------------------------------------------------------------|

Guitar 2 (Distortion + Delay)
e|---------------------------------------------------------------------------|
B|---------------------------------------------------------------------------|
G|------6666666666644444444442222222221111444111-----------------------------|   x 4
D|---------------------------------------------------------------------------|
A|---------------------------------------------------------------------------|
E|---------------------------------------------------------------------------|
        xxxxxxxxxxxxxxxxxxxxxxxxxxxxxxxxxxxxxxxx

Intro 2

Verse 1

Chorus


Interlude

Guitar 1 (Distortion)
e|---------------------------------------------------------------------------|
B|---------------------------------------------------------------------------|
G|---------------------------------------------------------------------------|   x 1
D|-----7---7h9------7---7h9--------------------------------------------------|
A|---0---7--------0---7------------------------------------------------------|
E|---------------------------------------------------------------------------|

e|---------------------------------------------------------------------------|
B|---------------------------------------------------------------------------|
G|--------------9------------------------------------------------------------|   x 8
D|-----7---7h9----7----------------------------------------------------------|
A|---0---7-------------------------------------------------------------------|
E|---------------------------------------------------------------------------|

Guitar 2 (Distortion)
e|---------------------------------------------------------------------------|
B|---------------------------------------------------------------------------|
G|---------7~----------------------------------------------------------------|   x 1
D|---7~-7~-7~-7~-------------------------------------------------------------|
A|---7~-7~-5~-7~-------------------------------------------------------------|
E|---5~-5~----5~-------------------------------------------------------------|

Verse 2

Guitar 1 (Distortion)
e|---------------------------------------------------------------------------|
B|---------------------------------------------------------------------------|
G|--------------9------------------------------------------------------------|   x 8
D|-----7---7h9----7----------------------------------------------------------|
A|---0---7-------------------------------------------------------------------|
E|---------------------------------------------------------------------------|

Guitar 2 (Distortion)
e|---------------------------------------------------------------------------|
B|---------------------------------------------------------------------------|
G|-----------7--6--4---------------------------------------------------------|   x 1
D|-------7---7--7--4---------------------------------------------------------|
A|-------7---5--4--2---------------------------------------------------------|
E|-------5-------------------------------------------------------------------|

Outro

Guitar 1 (Distortion)
e|---------------------------------------------------------------------------|
B|---10-10-10-10-10-10-10-10-10-10-10-10-10-10-9-9-12-12-12-10-10------------|
G|---------------------------------------------------------------------------|   x 16
D|---------------------------------------------------------------------------|
A|---------------------------------------------------------------------------|
E|---------------------------------------------------------------------------|

Guitar 2 (Distortion)
e|---------------------------------------------------------------------------|
B|---------------------------------------------------------------------------|
G|--------7~------7~---------------------------------------------------------|   x 1
D|----7~--7~--7~--7~---------------------------------------------------------|
A|----7~--5~--7~--5~---------------------------------------------------------|
E|----5~------5~-------------------------------------------------------------|

e|---------------------------------------------------------------------------|
B|---------------------------------------------------------------------------|
G|----------7~--6~--4~-------------------------------------------------------|   x 1
D|-----7~---7~--7~--4~-------------------------------------------------------|
A|-----7~---5~--4~--2~-------------------------------------------------------|
E|-----5~--------------------------------------------------------------------|
exibições 2.630
Acordes para:
    Colaboração e revisão:
    • Jean Sapia

    0 comentários

    mostrar mais comentários

    Conseguiu tocar?

    1 tocaram 0 ainda não

    Grave um vídeo tocando Heaven e mande pra gente!

    00:00 / 00:00
    outros vídeos desta música
    repetir qualidade Automático
    Outros vídeos desta música
    00:00 / 00:00
    Automático
    OK