Cifra Club

Sirens

Angels & Airwaves

Cifra: Principal (violão e guitarra)
Tom: G
Intro: strum (pattern shown)

e|--------------------------------------------------------------------------|
B|--------------------------------------------------------------------------|
G|11---11---9--9------------------------------------------------------------|
D|9----9----7--7------------------------------------------------------------|
A|--------------------------------------------------------------------------|
E|--------------------------------------------------------------------------|

Bridge/Chorus: Either strum or pick this part of the song

e|--------------------------------------------------------------------------|
B|--------------------------------------------------------------------------|
G|11---9---7----------------------------------------------------------------|
D|-9---7---5----------------------------------------------------------------|
A|--------------------------------------------------------------------------|
E|--------------------------------------------------------------------------|

Verse 2:
e|--------------------------------------------------------------------------|
B|--------------------------------------------------------------------------|
G|-11-11---9--9--11-11---11-------------------------------------------------|
D|-9--9---7--7---9--9-------------------------------------------------------|
A|--------------------------------------------------------------------------|
E|--------------------------------------------------------------------------|
exibições 4.043
Acordes para:
    Composição: Tom DeLonge Colaboração e revisão:
    • Jean Sapia

    0 comentários

    mostrar mais comentários

    Conseguiu tocar?

    0 tocaram 0 ainda não

    Grave um vídeo tocando Sirens e mande pra gente!

    00:00 / 00:00
    outros vídeos desta música
    repetir qualidade Automático
    Outros vídeos desta música
    00:00 / 00:00
    Automático
    OK