Cifra Club

Start The Machine

Angels & Airwaves

Cifra: Principal (violão e guitarra)
Tom: E
e-mail- *


ok heres Start the Machine. Most definately a top song on the album. the intro is a 
so the intro tab is down an octave since a xylophone is so high.

Intro
e|--7---7------7--7----11----11-------11---11---|
B|--7---7------7--7----12----12-------12---12---|
G|----8---8--6----8-------11----11--------------|  x2
D|----------------9----------------11-------9---|
A|----------------------------------------------|
E|----------------------------------------------|

e|--7--7--7--7-6-9--9--9--9-6-7------------|
B|--7--7--7--7-7-7--7--7--7-7-7------------|
G|-----------------------------------------| x3
D|-----------------------------------------|
A|-----------------------------------------|
E|-----------------------------------------|

Verse (no guitar but heres the notes played on bass)
e|-----------------------------------------|
B|-----------------------------------------|
G|-----------------------------------------|
D|-----------------------------------------|
A|-66666666-77777777-22222222--------------|
E|----------------------------22222222-----|

Chorus "You know, i wont say sorry"
Intro is played n heres the chords its based off of
e|-----------------------------------------|
B|-----------------------------------------|
G|-4~----4~-4~-----------------------------|  each chord rung out for
D|-4~-4~-4~-4~-3~-4~-----------------------|  two beats...
A|-2~-4~-2~-1~-3~-4~-----------------------|
E|----2~-------1~-2~-----------------------|

Verse

Chorus

Bridge

Guitar 1
e|---------------------------------------------------------------------|
B|---------------------------------------------------------------------|
G|----------------------------------------------------9-9-9-9-9-9-9-9--|
D|-4-4-4-4-4-4-4-4--6-6-6-6-6-6-6-6-------------------7-7-7-7-7-7-7-7--|
A|-2-2-2-2-2-2-2-2--4-4-4-4-4-4-4-4--6-6-6-6-6-6-6-6-------------------|
E|-----------------------------------4-4-4-4-4-4-4-4-------------------|
pm.........................................

Guitar 2 (Delay)
e|-----------------------------------------|
B|---7-7-----------7-7---------------------|
G|---------------------------9~------------|
D|--------9-9-9~--------9-9----------------|
A|-----------------------------------------|
E|-----------------------------------------|

Both guitars repeat through whole bridge

Outro "If Loves a word, that you say....."
e|--------------------------------------------------------------------|
B|---------------------------------------------------9-9-9-9-9-9-9-9--|
G|---------------------------------------------------9-9-9-9-9-9-9-9--|
D|-4-4-4-4-4-4-4-4-4-4-4-4-4-4-4-4-------------------7-7-7-7-7-7-7-7--|
A|-2-2-2-2-2-2-2-2-2-2-2-2-2-2-2-2--4-4-4-4-4-4-4-4-------------------|
E|----------------------------------2-2-2-2-2-2-2-2-------------------|
pm.................................................

end that part/guitar on
e|----------------|
B|----------------|
G|------4~--------|
D|------4~--------|
A|------2~--------|
E|----------------|

then play

Outro second part after singing
Consider this guitar 2 even though its on a xylophone
e|--7---7------7--7----11----11-------11---11---|
B|--7---7------7--7----12----12-------12---12---|
G|----8---8--6----8-------11----11--------------| x4
D|----------------9----------------11-------9---|
A|----------------------------------------------|
E|----------------------------------------------|

Well there you have it
Start the Machine. Thanks again! ......Nick
exibições 1.986
Acordes para:

    0 comentários

    mostrar mais comentários

    Conseguiu tocar?

    0 tocaram 0 ainda não

    Grave um vídeo tocando Start The Machine e mande pra gente!

    00:00 / 00:00
    outros vídeos desta música
    repetir qualidade Automático
    Outros vídeos desta música
    00:00 / 00:00
    Automático
    OK