Cifra Club

War

Angels & Airwaves

Cifra: Versão 5 (violão e guitarra)
Tom: D
Drop D tuning (e B G D A D) X= Palm mute  ~= let ring

Intro (palm muted with some delay)

e|-------------------------------------------------|
B|-------------------------------------------------|
G|-------------------------------------------------|  X8
D|-------------------------------------------------|
A|------------12-------10-------9-------9----9-----|
D|---12-12-12----12-12----12-12---12-12---12-------|

e|-------------------------------------------------|
B|-------------------------------------------------|
G|-------------------------------------------------|  X2
D|-------------------------------------------------|
A|0-0-0-0---0-0-0-0---7-7-7-7---0-0-0-0---0-0-0-0--|
D|0-0-0-0---0-0-0-0---7-7-7-7---0-0-0-0---0-0-0-0--|

e|-------------------------------------------------|
B|-------------------------------------------------|
G|-------------------------------------------------|
D|-------------------------------------------------|
A|7-7-7-7---9-9-9-9---9-9-9-9---5-5-5-5---0-0-0-0--|
D|7-7-7-7---9-9-9-9---9-9-9-9---5-5-5-5---0-0-0-0--|

e|-------------------------------------------------|
B|-------------------------------------------------|
G|-------------------------------------------------|  Whole Intro X2
D|-------------------------------------------------|
A|7-7-7-7---X-X-X-5~-------------------------------|
D|7-7-7-7---X-X-X-5~-------------------------------|

 (After second repeat)

e|----------------------------------|
B|----------------------------------|
G|----------------------------------|
D|----------------------------------|
A|0~--------------------------------|
D|0~--------------------------------|

Verse

e|----------------------------------|
B|----------------------------------|
G|11-11-11-11---11-11-11-11---11-11-|
D|X--X--X--X----X--X--X--X----X--X--|
A|9--9--9--9----9--9--9--9----9--9--|
D|----------------------------------|


e|------------------------|
B|------------------------|
G|7-7-7-7---7-7-7-7---7-7-|  X9
D|X-X-X-X---X-X-X-X---X-X-|
A|5-5-5-5---5-5-5-5---5-5-|
D|------------------------|


e|----------------------------------|
B|----------------------------------|
G|11-11-11-11---11-11-11-11---11-11-|
D|X--X--X--X----X--X--X--X----X--X--|
A|9--9--9--9----9--9--9--9----9--9--|
D|----------------------------------|

e|--------------------------|
B|--------------------------|
G|7-7-7-7---7-7-7-7---7-7---|  X16 -or- X18 (I couldn't really tell)
D|X-X-X-X---X-X-X-X---X-X---|
A|5-5-5-5---5-5-5-5---5-5---|
D|--------------------------|

Chorus

e|---------------------------------------------------|
B|---------------------------------------------------|
G|---------------------------------------------------|
D|0-0-0-0---0-0-0-0---0-0---0-0-0-0---0-0-0-0---0-0--|
A|0-0-0-0---0-0-0-0---0-0---0-0-0-0---0-0-0-0---0-0--|
D|0-0-0-0---0-0-0-0---0-0---0-0-0-0---0-0-0-0---0-0--|

e|---------------------------------------------------|
B|---------------------------------------------------|
G|---------------------------------------------------|
D|7-7-7-7---7-7-7-7---7-7---5-5-5-5---5-5-5-5---5-5--| Repeat Chorus X2
A|7-7-7-7---7-7-7-7---7-7---5-5-5-5---5-5-5-5---5-5--|
D|7-7-7-7---7-7-7-7---7-7---5-5-5-5---5-5-5-5---5-5--|

(Repeat Intro)

e|-------------------------|
B|-------------------------|
G|7-7-7-7---7-7-7-7---7-7--|   X16 -or- X18
D|X-X-X-X---X-X-X-X---X-X--|
A|5-5-5-5---5-5-5-5---5-5--|
D|-------------------------|

(Repeat Verse)

(Repeat Chorus)

Start back after 16 "oh, oh, oh"'s

e|-------------------------|
B|-------------------------|
G|7-7-7-7---7-7-7-7---7-7--|  X20
D|X-X-X-X---X-X-X-X---X-X--|
A|5-5-5-5---5-5-5-5---5-5--|
D|-------------------------|

(Repeat Chorus)


e|-------------------------------------------------|
B|-------------------------------------------------|
G|-------------------------------------------------|  X2
D|-------------------------------------------------|
A|0-0-0-0---0-0-0-0---7-7-7-7---0-0-0-0---0-0-0-0--|
D|0-0-0-0---0-0-0-0---7-7-7-7---0-0-0-0---0-0-0-0--|

e|-------------------------------------------------|
B|-------------------------------------------------|
G|-------------------------------------------------|
D|-------------------------------------------------|
A|7-7-7-7---9-9-9-9---9-9-9-9---5-5-5-5---0-0-0-0--|
D|7-7-7-7---9-9-9-9---9-9-9-9---5-5-5-5---0-0-0-0--|

(After second repeat)

e|----------------------------------|
B|----------------------------------|
G|----------------------------------|
D|----------------------------------|
A|0~--------------------------------|
D|0~--------------------------------|

Kick ass song. Hope you like it. I just listened to this and played it so I think that 
should be right. Let me know what you think. CHEERS!!!!
exibições 140
Acordes para:
    Composição: Tom DeLonge

    0 comentários

    mostrar mais comentários

    Conseguiu tocar?

    0 tocaram 0 ainda não

    Grave um vídeo tocando War e mande pra gente!

    00:00 / 00:00
    outros vídeos desta música
    repetir qualidade Automático
    Outros vídeos desta música
    00:00 / 00:00
    Automático
    OK