Cifra Club

Acid Rain

Angra

Tab de baixo: Principal
exibições 6.659
G||--------------------|--------------------|--------------------|
D||--------------------|--------------------|--------------------|
A||--0--0--------------|--0--0--------------|--0--0--------------|
E||--------------------|--------------------|--------------------|
B||--------------------|--------------------|--------------------|


-------------------|--------------------|--------------------|
-------------------|--------------------|--------------------|
-------------------|--0--0--------------|--0--0--------------|
--1----------------|--------------------|--------------------|
-------------------|--------------------|--------------------|


--------------------|-------------------|-------------------|
--------------------|-------------------|-------------------|
--0--0--------------|-------------------|--0----------------|
--------------------|-------------------|-------------------|
--------------------|--1----------------|-------------------|


-------------------|-------------------|-------------------|
-------------------|-------------------|-------------------|
-------------------|-------------------|--3~---------------|
-------------------|--2----------------|-------------------|
--1----------------|-------------------|-------------------|


----------------------------------|----------------------------------|
----------------------------------|----------------------------------|
----------------------------------|----------------------------------|
--0-0-0-0-0-0-0-0-0-0-0-0-0-0-0-0-|--5-5-5-5-5-5-5-5-5-5-5-5-5-5-5-5-|
----------------------------------|----------------------------------|


----------------------------------|--------------------------|
----------------------------------|--------------------------|
--5-5-5-5-5-5-5-5-5-5-5-5-5-5-5-5-|--2--2-2-2----2-2-3--2----|
----------------------------------|--------------------------|
----------------------------------|--------------------------|


----------------------------------|----------------------------------|
----------------------------------|----------------------------------|
----------------------------------|----------------------------------|
--0-0-0-0-0-0-0-0-0-0-0-0-0-0-0-0-|--5-5-5-5-5-5-5-5-5-5-5-5-5-5-5-5-|
----------------------------------|----------------------------------|


---------------------|----------------------------------|
---------------------|----------------------------------|
--3------6------2----|----------------------------------|
---------------------|--0-0-0-0-0-0-0-0-0-0-0-0-0-0-0-0-|
---------------------|----------------------------------|


----------------------------------|----------------------------------|
----------------------------------|----------------------------------|
----------------------------------|----------------------------------|
--0-0-0-0-0-0-0-0-0-0-0-0-0-0-0-0-|--0-0-0-0-0-0-0-0-0-0-0-0-0-0-0-0-|
----------------------------------|----------------------------------|


---------------------|----------------------------------|
---------------------|----------------------------------|
-----------3----5----|----------------------------------|
---------------------|--0-0-0-0-0-0-0-0-0-0-0-0-0-0-0-0-|
--1------------------|----------------------------------|


----------------------------------|----------------------------------|
----------------------------------|----------------------------------|
----------------------------------|----------------------------------|
--0-0-0-0-0-0-0-0-0-0-0-0-0-0-0-0-|--0-0-0-0-0-0-0-0-0-0-0-0-0-0-0-0-|
----------------------------------|----------------------------------|


---------------------|------------------------|------------------------|
---------------------|------------------------|------------------------|
-----------3----5----|------------7------7----|------------5------5----|
---------------------|--0-0--0--0-------------|--0-0--0--0-------------|
--1------------------|------------------------|------------------------|


------------------------|-------------------------||
------------------------|-------------------------||
------------3------3----|--------------1~---------||
--0-0--0--0-------------|--0-0-0-0-0-0------------||
------------------------|-------------------------||
Composição: Rafael BittencourtColaboração e revisão:
  • Junior Jr

0 comentários

    mostrar mais comentários

    Conseguiu tocar?

    0tocaram0ainda não

    Grave um vídeo tocando Acid Rain e mande pra gente!

    00:00 / 00:00
    outros vídeos desta música
    repetirqualidadeautomática
    Outro vídeos desta música
      00:00 / 00:00
      automática
      OK