Enviar cifraEntrar

Caça e Caçador

Angra

Tab de baixo: Principal
exibições 759
     W                   W                   W                 
G||-------------------|-------------------|-------------------|
D||-------------------|-------------------|-------------------|
A||-------------------|-------------------|-------------------|
E||-------------------|-------------------|-------------------|

  W                   W                   W                   W                 
-------------------|-------------------|-------------------|-------------------|
-------------------|-------------------|-------------------|-------------------|
-------------------|-------------------|-------------------|-------------------|
-------------------|-------------------|-------------------|-------------------|

  W                   W                   W                   W                 
-------------------|-------------------|-------------------|-------------------|
-------------------|-------------------|-------------------|-------------------|
-------------------|-------------------|-------------------|-------------------|
-------------------|-------------------|-------------------|-------------------|

  W                   W                   W                   W                 
-------------------|-------------------|-------------------|-------------------|
-------------------|-------------------|-------------------|-------------------|
-------------------|--5----------------|--L----------------|--3----------------|
-------------------|-------------------|-------------------|-------------------|

  W                   W                   W                   W                 
-------------------|-------------------|-------------------|-------------------|
-------------------|-------------------|-------------------|-------------------|
-------------------|--5----------------|--L----------------|-------------------|
--3----------------|-------------------|-------------------|--1----------------|

  W                   E  Q.     H           H        S E  S E  E   
-------------------|---------------------|------------------------|
-------------------|---------------------|-----------0-0--0-0--0--|
-------------------|--5------------------|------------------------|
--5----------------|---------------------|------------------------|

  H.           E  E     E  S S S E  S S E  S E  E     E  E  E.  S E.  S E  E   
---------------------|----------------0-0--0-0-----|--------------------------|
------------------2--|--L--2-2-2-2--2-----------0--|--0--0--0---0-0---0-0--0--|
---------------------|-----------------------------|--------------------------|
---------------------|-----------------------------|--------------------------|

  E  E  E.  S E.  S E  E     E  E  E.  S E.  S E  E   
--------------------------|--------------------------|
--0--0--0---0-0---0-0--0--|--0--0--0---0-0---0-0--2--|
--------------------------|--------------------------|
--------------------------|--------------------------|

  E  S S S E  S S E  S E  E     E  E  E.  S E.  S E  E   
----------------0-0--0-0-----|--------------------------|
--L--2-2-2-2--2-----------0--|--0--0--0---0-0---0-0--0--|
-----------------------------|--------------------------|
-----------------------------|--------------------------|

  E  E  E.  S E.  S E  E     E  E  E.  S E.  S E  E   
--------------------------|--------------------------|
--0--0--0---0-0---0-0--0--|--0--0--0---0-0---0-0--2--|
--------------------------|--------------------------|
--------------------------|--------------------------|

  E  S S S E  S S E  S E  E     E.  S E  E  E.  S E  E   
----------------0-0--0-0-----|--------------------------|
--L--2-2-2-2--2-----------0--|--0---0-0--0--0---0-0--0--|
-----------------------------|--------------------------|
-----------------------------|--------------------------|

  E.  S E  E  E.  S E  E     E.  S E  E  E.  S E  E   
--------------------------|--------------------------|
--0---0-0--0--0---0-0--0--|--0---0-0--0--0---0-0--0--|
--------------------------|--------------------------|
--------------------------|--------------------------|

  E.  S E  E  E.  S E  E     E  E  E.  S E.  S E  E   
--------------------------|--------------------------|
--0---0-0--0--0---0-0--0--|--0--0--0---0-0---0-0--0--|
--------------------------|--------------------------|
--------------------------|--------------------------|

  E  E  E.  S E.  S E  E     E  E  E.  S E.  S E  E   
--------------------------|--------------------------|
--0--0--0---0-0---0-0--0--|--0--0--0---0-0---0-0--2--|
--------------------------|--------------------------|
--------------------------|--------------------------|

  E  S S S E  S S E  S E  E     Q      E  E  Q      E  E   
----------------0-0--0-0-----|----------------------------|
--L--2-2-2-2--2-----------0--|----------------------------|
-----------------------------|-------5g3--5-------5g3--5--|
-----------------------------|----------------------------|

  Q      E  E  Q    Q       Q      E  E  Q      E  E   
-------------------------|----------------------------|
--------------------3----|----------------------------|
-------5g3--5------------|-------5g3--5-------5g3--5--|
-------------------------|----------------------------|

  Q      E  E  Q    Q       E  S S E  E  E  S S E  E   
-------------------------|----------------------------|
-------------------------|--0----0----0--0----0----0--|
-------5g3--5-------2----|----------------------------|
-------------------------|----------------------------|

  E  S S E  E  E  S S E  E     E  S S E  E  E  S S E  E   
----------------------------|----------------------------|
--0----0----0--0----0----0--|--0----0----0--0----0----0--|
----------------------------|----------------------------|
----------------------------|----------------------------|

  E  S S E  E  E  S S E  E     E  S S E  E  E  S S E  E   
----------------------------|---------------0----0----0--|
---------------0----0----0--|--0----0----0---------------|
--0----0----0---------------|----------------------------|
----------------------------|----------------------------|

  E  S S E  E  E  S S E  E     E  S S E  E  E  S S E  E   
----------------------------|----------------------------|
---------------0----0----0--|--0----0----0--0----0----0--|
--2----2----2---------------|----------------------------|
----------------------------|----------------------------|

  E  S S E  E  E  S S E  E     E  S S E  E  E  S S E  E     E  S S E  E   
----------------------------|----------------------------|---------------|
---------------0----0----0--|--0----0----0--2----2----2--|---------------|
--0----0----0---------------|----------------------------|--0----0----0--|
----------------------------|----------------------------|---------------|

  E.  S Q    E.  S Q       E.  S Q    E.  S Q       E.  S Q    E.  S Q     
------------------------|------------------------|------------------------|
--0---0-L----0---0-L----|------------------------|--0---0-L----0---0-L----|
------------------------|--3---3-L----3---3-L----|------------------------|
------------------------|------------------------|------------------------|

  E.  S Q    E.  S Q       E  S S E  E  E  S S E  E   
------------------------|----------------------------|
------------------------|--0----0----0--0----0----0--|
--3---3-L----3---3-L----|----------------------------|
------------------------|----------------------------|

  E  S S E  E  E  S S E  E     E  S S E  E  E  S S E  E   
----------------------------|---------------0----0----0--|
---------------0----0----0--|--0----0----0---------------|
--0----0----0---------------|----------------------------|
----------------------------|----------------------------|

  E  S S E  E  E  S S E  E     E  S S E  E  E  S S E  E   
----------------------------|----------------------------|
---------------0----0----0--|--0----0----0--0----0----0--|
--2----2----2---------------|----------------------------|
----------------------------|----------------------------|

  E  S S E  E  E  S S E  E     E  S S E  E  E  S S E  E     E  S S E  E   
----------------------------|----------------------------|---------------|
---------------0----0----0--|--0----0----0--2----2----2--|------------0--|
--0----0----0---------------|----------------------------|--0----0-------|
----------------------------|----------------------------|---------------|

  E.  S S S S S S S S S S S E     E  E  E  E  E  E  E  E   
-------------------------------|--------------------------|
--L----------------------------|--------------------------|
------3-3-3---3-3-3---3-3---2--|--2--2--2--2--2--2--2-----|
-------------------------------|-----------------------0--|

  E  E  E  E  E  E  E  E     E  E  E  E  E  E  E  E   
--------------------------|--------------------------|
--------------------------|-----------------------0--|
--------------------------|--------------------------|
--0--0--0--0--0--0--0--0--|--3--3--3--3--3--3--3-----|

  E  E  E  E  E  E  E  E     E  E  E  E  E  E  E  E   
--------------------------|--------------------------|
--0--0--0--0--0--0--0--0--|--------------------------|
--------------------------|--2--2--2--2--2--2--2-----|
--------------------------|-----------------------0--|

  E  E  E  E  E  E  E  E     E  E  E  E  E  E  E  E   
--------------------------|--------------------------|
--------------------------|--------------------------|
--------------------------|--------------------------|
--0--0--0--0--0--0--0--0--|--3-----3--3-----3--3--3--|

  E  E  E  E  E  E  E  E     E  E  E  E  E  E  E  E     W                 
--------------------------|--------------------------|-------------------|
--------------------------|--------------------------|-------------------|
-----0--0-----0-----0-----|--------------------------|-------------------|
--------------------------|--3-----3--3-----3--3--3--|--2----------------|

  W                   W                   W                   W                 
-------------------|-------------------|-------------------|-------------------|
-------------------|--0----------------|-------------------|-------------------|
--2----------------|-------------------|--0----------------|-------------------|
-------------------|-------------------|-------------------|--3----------------|

  W                   W                   W                   W                 
-------------------|-------------------|-------------------|-------------------|
-------------------|--0----------------|--2----------------|-------------------|
--2----------------|-------------------|-------------------|-------------------|
-------------------|-------------------|-------------------|--3----------------|

  W                   W                   W                   W                 
-------------------|-------------------|-------------------|-------------------|
-------------------|--0----------------|-------------------|-------------------|
--2----------------|-------------------|--0----------------|-------------------|
-------------------|-------------------|-------------------|--3----------------|

  W                   W                   W                 
-------------------|-------------------|-------------------|
-------------------|--0----------------|--2----------------|
--2----------------|-------------------|-------------------|
-------------------|-------------------|-------------------|

  E  Q    E   H           E  E  E.  S E.  S E  E     E  E  E.  S E.  S E  E   
-----------------------|--------------------------|--------------------------|
----------7S--L--------|--0--0--0---0-0---0-0--0--|--0--0--0---0-0---0-0--0--|
-----5-----------------|--------------------------|--------------------------|
--3--------------------|--------------------------|--------------------------|

  E  E  E.  S E.  S E  E     E  S S S E  S S E  S E  E   
--------------------------|----------------0-0--0-0-----|
--0--0--0---0-0---0-0--2--|--L--2-2-2-2--2-----------0--|
--------------------------|-----------------------------|
--------------------------|-----------------------------|

  E  E  E.  S E.  S E  E     E  E  E.  S E.  S E  E   
--------------------------|--------------------------|
--0--0--0---0-0---0-0--0--|--0--0--0---0-0---0-0--0--|
--------------------------|--------------------------|
--------------------------|--------------------------|

  E  E  E.  S E.  S E  E     E  S S S E  S S E  S E  E   
--------------------------|----------------0-0--0-0-----|
--0--0--0---0-0---0-0--2--|--L--2-2-2-2--2-----------0--|
--------------------------|-----------------------------|
--------------------------|-----------------------------|

  Q      E  E  Q      E  E     Q      E  E  Q    Q     
----------------------------|-------------------------|
----------------------------|--------------------3----|
-------5g3--5-------5g3--5--|-------5g3--5------------|
----------------------------|-------------------------|

  Q      E  E  Q      E  E     Q      E  E  Q    Q       W                 
----------------------------|-------------------------|-------------------|
----------------------------|-------------------------|-------------------|
-------5g3--5-------5g3--5--|-------5g3--5-------2----|-------------------|
----------------------------|-------------------------|--5----------------|

  W                   W                   W                   W                 
-------------------|-------------------|-------------------|-------------------|
-------------------|-------------------|-------------------|-------------------|
-------------------|-------------------|-------------------|-------------------|
--6----------------|--7----------------|--8----------------|--9----------------|

   H        H           W                   W                 
---------------------|-------------------|-------------------|
---------------------|-------------------|-------------------|
---------------------|-------------------|--6----------------|
--10--------8--------|--6----------------|-------------------|

  W                   W                   W                   W                 
-------------------|-------------------|-------------------|-------------------|
-------------------|-------------------|-------------------|-------------------|
--5----------------|--6----------------|--7----------------|--8----------------|
-------------------|-------------------|-------------------|-------------------|

  W                   H        H           W                 
-------------------|--------------------|-------------------|
--4----------------|--5--------3--------|--0----------------|
-------------------|--------------------|-------------------|
-------------------|--------------------|-------------------|

  W                   E  S S E  E.  S S S S S S S    S S S S S S Q    E  E  E   
-------------------|---------3--5---5---5-----3-5-|--5-3-------3---------------|
--1----------------|--5--5-5----------------5-----|------5-3-5---5----2--3--4--|
-------------------|------------------------------|----------------------------|
-------------------|------------------------------|----------------------------|

  E  S S E  E.  S S S S S S S    S S S S S S E  H         
---------3--5---5---5-----3-5-|--5-3-------3-------------|
--5--5-5----------------5-----|------5-3-5---5--L--------|
------------------------------|--------------------------|
------------------------------|--------------------------|

  E  S S E  S S E  S S E  S S    E  S S E  S S E  S S E  S S  
------------------------------|------------------------------|
------------------------------|------------------------------|
--6--6-6-6--6-6-5--5-5-5--5-5-|--3--3-3-3--3-3---------------|
------------------------------|----------------3--3-3-3--3-3-|

  E  S S E  E.  S S S S S S S    S S S S S S Q    E  E  E   
---------3--5---5---5-----3-5-|--5-3-------3---------------|
--5--5-5----------------5-----|------5-3-5---5----2--3--4--|
------------------------------|----------------------------|
------------------------------|----------------------------|

  E  S S E  E.  S S S S S S S    S S S S S S E  H         
---------3--5---5---5-----3-5-|--5-3-------3-------------|
--5--5-5----------------5-----|------5-3-5---5--L--------|
------------------------------|--------------------------|
------------------------------|--------------------------|

  E  S S E  S S E  S S E  S S    E  S S E  S S E  S S E  S S  
------------------------------|------------------------------|
------------------------------|------------------------------|
--6--6-6-6--6-6-5--5-5-5--5-5-|--3--3-3-3--3-3---------------|
------------------------------|----------------3--3-3-3--3-3-|

  E  S S E  E.  S S S S S S S    S S S S S S E  H         
---------3--5---5---5-----3-5-|--5-3-------3-------------|
--5--5-5----------------5-----|------5-3-5---5--L--------|
------------------------------|--------------------------|
------------------------------|--------------------------|

  S S S S S S E  S S S S S S E     S S S S S S S S S S S S S S E   
-----------------------3-2-0----|------------------------1-0------|
------0-3-2-0------0-3-------3--|--L-------------------0-----3-1--|
----1---------3--L--------------|----1-0-------1---0-3------------|
--3-----------------------------|--------3-1-3---3----------------|

  S S S S S S S S S S S S S S E     H        H           W                 
---------------------------------|--------------------|-------------------|
--L---------------------5--------|--------------------|-------------------|
----4-4-3-3---------------8-6----|--------------------|--5----------------|
------------6-6-4-4-3-6-------3--|--L--------5--------|-------------------|

  W                   W                   W                   W                 
-------------------|-------------------|-------------------|-------------------|
-------------------|-------------------|-------------------|--0----------------|
--L----------------|--3----------------|-------------------|-------------------|
-------------------|-------------------|--3----------------|-------------------|

  W                   W                   W                 
-------------------|-------------------|-------------------|
--L----------------|-------------------|-------------------|
-------------------|-------------------|--0----------------|
-------------------|--1----------------|-------------------|

  E  S S S S S S S S S S S S E     E  E  E  E  E  E  E  E   
--------------------------------|--------------------------|
--0-----------------------------|--------------------------|
-------3-3-3---3-3-3---3-3---2--|--2--2--2--2--2--2--2-----|
--------------------------------|-----------------------0--|

  E  E  E  E  E  E  E  E     E  E  E  E  E  E  E  E   
--------------------------|--------------------------|
--------------------------|-----------------------0--|
--------------------------|--------------------------|
--0--0--0--0--0--0--0--0--|--3--3--3--3--3--3--3-----|

  E  E  E  E  E  E  E  E     E  E  E  E  E  E  E  E   
--------------------------|--------------------------|
--0--0--0--0--0--0--0--0--|--------------------------|
--------------------------|--2--2--2--2--2--2--2-----|
--------------------------|-----------------------0--|

  E  E  E  E  E  E  E  E     E  E  E  E  E  E  E  E   
--------------------------|--------------------------|
--------------------------|--------------------------|
--------------------------|--------------------------|
--0--0--0--0--0--0--0--0--|--3-----3--3-----3--3--3--|

  E  E  E  E  E  E  E  E     E  E  E  E  E  E  E  E     W                 
--------------------------|--------------------------|-------------------|
--------------------------|--------------------------|-------------------|
-----0--0-----0-----0-----|--------------------------|-------------------|
--------------------------|--3-----3--3-----3--3--3--|--2----------------|

  W                   W                   W                   W                 
-------------------|-------------------|-------------------|-------------------|
-------------------|--0----------------|-------------------|-------------------|
--2----------------|-------------------|--0----------------|-------------------|
-------------------|-------------------|-------------------|--3----------------|

  W                   W                   W                   W                 
-------------------|-------------------|-------------------|-------------------|
-------------------|--0----------------|--2----------------|-------------------|
--2----------------|-------------------|-------------------|-------------------|
-------------------|-------------------|-------------------|--3----------------|

  W                   W                   W                   W                 
-------------------|-------------------|-------------------|-------------------|
-------------------|--0----------------|-------------------|-------------------|
--2----------------|-------------------|--0----------------|-------------------|
-------------------|-------------------|-------------------|--3----------------|

  W                   W                   W                 
-------------------|-------------------|-------------------|
-------------------|--0----------------|--2----------------|
--2----------------|-------------------|-------------------|
-------------------|-------------------|-------------------|

  E  Q    E   H           E  E  E.  S E.  S E  E     E  E  E.  S E.  S E  E   
-----------------------|--------------------------|--------------------------|
----------7S--L--------|--0--0--0---0-0---0-0--0--|--0--0--0---0-0---0-0--0--|
-----5-----------------|--------------------------|--------------------------|
--3--------------------|--------------------------|--------------------------|

  E  E  E.  S E.  S E  E     E  S S S E  S S E  S E  E   
--------------------------|----------------0-0--0-0-----|
--0--0--0---0-0---0-0--2--|--L--2-2-2-2--2-----------0--|
--------------------------|-----------------------------|
--------------------------|-----------------------------|

  E  E  E.  S E.  S E  E     E  E  E.  S E.  S E  E   
--------------------------|--------------------------|
--0--0--0---0-0---0-0--0--|--0--0--0---0-0---0-0--0--|
--------------------------|--------------------------|
--------------------------|--------------------------|

  E  E  E.  S E.  S E  E                           
--------------------------|-------|-------|-------|
--0--0--0---0-0---0-0--2--|-------|-------|-------|
--------------------------|-------|-------|-------|
--------------------------|-------|-------|-------|

  Q    S S S S S S S S S S S S    E  E  H.             
-------------------------------|---------------------||
-------------------------------|---------------------||
-------3-3-3---3-3-3---3-3---5-|--L------------------||
-------------------------------|---------------------||

Duration Legend
---------------
W - whole
H - half
Q - quarter
E - 8th
S - 16th
T - 32nd
X - 64th
. - note dotted
|-n-|  - n-tuplets


Tablature Legend
----------------
L - tied note
x - dead note
g - grace note
(n) - ghost note
> - accentuded note
NH - natural harmonic
AH - artificial harmonic
TH - tapped harmonic
SH - semi harmonic
PH - pitch harmonic
h - hammer on
p - pull off
b - bend
br - bendRelease
pb - preBend
pbr - preBendRelease
brb - bendReleaseBend
\n/ - tremolo bar dip
\n - tremolo bar dive
-/n - tremolo bar Release up
/n\ - tremolo bar inverted dip
/n - tremolo bar return
-\n - tremolo bar Release down
S - shift slide
s - legato slide
/ -  slide into from below or out of upwards
\ -  slide into from above or out of downwards
~ - vibrato
W - wide vibrato
tr - trill
TP - tremolo picking
T - tapping
S - slap
P - pop
< - fade in
^ - brush up
v - brush down
  • 1
  • 2
  • 3
  • 4
  • 5
  • 6
  • 7
  • 8
  • 9
  • 10
  • 11
  • 12

    0 comentários

      mostrar mais comentários

      Conseguiu tocar?

      0tocaram0ainda não

      Grave um vídeo tocando Caça e Caçador e mande pra gente!

      00:00 / 00:00
      outros vídeos desta música
      repetirqualidadeautomática
      • automática
      Outro vídeos desta música
        00:00 / 00:00
        automática
        • automática
        Acordes para:violão e guitarra
        dificuldadeexibiçõescontribuições
        1 versão de Tab de baixoexibiçõescontribuições
        1 versão de Guitar Proformatodownloadscontribuição
        fecharplay/pause subir/descer velocidade
        fechar
        OK