Enviar cifraEntrar

Extreme Dream

Angra

Cifra: Principal
exibições 5.976
Tom: E
ESSA É A MÚSICA MAIS LOKA DO FIREWORKS DEMOREI MAS CONSEGUI TERMINAR!!!

 

E||------------------------|------------------------------------|
B||------------------------|------------------------------------|
G||------------------------|------------------------------------|Kiko Loureiro e Rafael Bittencourt
D||------------------------|------7--7/9-----12/11---12----11/9-|
A||------------------------|------5--5/7-----10/9----10----9/-7-|
E||------------------------|--0-0--------0-0-------0-----0------|



                                                                     

--------------------------------|-----------------------------------|
--------------------------------|-----------------------------------|
--------------------------------|-----------------------------------|
------7--7/9-----5/4---7----5/4-|------7--7/9-----12/11---12----11--|
------5--5/7-----3/2---5----3/2-|------5--5/7-----10/9----10----9---|
--0-0--------0-0-----0----0-----|--0-0--------0-0-------0-----0-----|



                                                                                      

------------------------------------------------|------------------------------------|
------------------------------------------------|------------------------------------|
------------------------------------------------|------------------------------------|
--4---------5---------4---------5---------4--9--|------7--7/9-----12/11---12----11/9-|
--2-2-2-2-2-2-2-2-2-2-2-2-2-2-2-2-2-2-2-2-2--6--|------5--5/7-----10/9----10----9/-7-|
------------------------------------------------|--0-0--------0-0-------0-----0------|



                                                                     

--------------------------------|-----------------------------------|
--------------------------------|-----------------------------------|
--------------------------------|-----------------------------------|
------7--7/9-----5/4---7----5/4-|------7--7/9-----12/11---12----11--|
------5--5/7-----3/2---5----3/2-|------5--5/7-----10/9----10----9---|
--0-0--------0-0-----0----0-----|--0-0--------0-0-------0-----0-----|



                                                                      

---------------------------------|-----------------------------------|
---------------------------------|-----------------------------------|
---------------------------------|-----------------------------------|
--4------------------------------|--9--------------------------------|
--2--2-2-2-2-2-2-2-2-2-2-2-2-2-2-|--6--6-6-6-6-6-6-6h7p6-3-2---------|
---------------------------------|---------------------------5-3-5-3-|



                                                                 Living a

---------------------|--------------------------------|-------------------------------|
---------------------|--------------------------------|-------------------------------|
---------------------|--------------------------------|-------------------------------|
---------------------|--------------------------------|--5------5------5-4---5----4-5-|
--2------------------|----------------------7-6h7-6h7-|--7------7------7-5---5----6-7-|
--0--------------0-0-|--3--0-5--0-6h7-0-7-0-----------|-----0-0----0-0-----0----0-----|



  dream          just for one     night          Feels like the last

--------------------------------|------------------------------|
--------------------------------|------------------------------|
--------------------------------|------------------------------|
------5--4-5-----5-4---5----4-5-|--4------4------4------4------|
------7--5-7-----7-5---7----6-7-|--2--2-2-2--2-2-2--2-2-2--2-2-|
--0-0--------0-0-----0----0-----|------------------------------|



  day                      of my  life            Roaming somewhere

--------------------------------|--------------------------------|
--------------------------------|--------------------------------|
--------------------------------|--------------------------------|
--7-4-----7------9------9-9-9-9-|------5--4-5-----5-4---5----4-5-|
--6-6-6-6-6--6-6-6--6-6-6-6-6-6-|------7--5-7-----7-5---7----6-7-|
--------------------------------|--0-0--------0-0-----0----0-----|



  just for a                      while          When all the

--------------------------------|------------------------------|
--------------------------------|------------------------------|
--------------------------------|------------------------------|
------5--4-5-----5-4---5----4-5-|--4------4------4------4------|
------7--5-7-----7-5---7----6-7-|--2--2-2-2--2-2-2--2-2-2--2-2-|
--0-0--------0-0-----0----0-----|------------------------------|



 feelings lay dorment                inside    Here we go,        marching on...
                                    

-----------------------------------|---------------------|--------------------|
-----------------------------------|---------------------|--------------------|
-----------------------------------|---------------------|--------------------|
--7-4-----7------------------------|-----------7------5--|----------2------4--|
--6-6-6-6-6--6-6-6h7p6-------------|--2--------5------3--|----------0------2--|
-----------------------8-7-5-3-5-3-|--0------------------|--------------------|



                   Unconsciously                                    far from this

-----------------|--------------------------------|--------------------------------|
-----------------|--------------------------------|--------------------------------|
-----------------|--------------------------------|--------------------------------|
-----------------|------5--4-5-----5-4---5----4-5-|------5--4-5-----5-4---5----4-5-|
---3-2-----------|------7--5-7-----7-5---7----6-7-|------7--5-7-----7-5---7----6-7-|
-------5-5-3-5-3-|--0-0--------0-0-----0----0-----|--0-0--------0-0-----0----0-----|



  world         We're knowing   foundations of all                               

------------------------------|--------------------------------|
------------------------------|--------------------------------|
------------------------------|--------------------------------|
--4------4------4------4------|--7-4-----7------9------9-9-9-9-|
--2--2-2-2--2-2-2--2-2-2--2-2-|--6-6-6-6-6--6-6-6--6-6-6-6-6-6-|
------------------------------|--------------------------------|



                                                                  

--------------------------------|--------------------------------|
--------------------------------|--------------------------------|
--------------------------------|--------------------------------|
------5--4-5-----5-4---5----4-5-|------5--4-5-----5-4---5----4-5-|
------7--5-7-----7-5---7----6-7-|------7--5-7-----7-5---7----6-7-|
--0-0--------0-0-----0----0-----|--0-0--------0-0-----0----0-----|



                                                                                         

------------------------------|-----------------------------------|---------------------|
------------------------------|-----------------------------------|---------------------|
------------------------------|-----------------------------------|---------------------|
--4------4------4------4------|--7-4-----7------------------------|-----------7------5--|
--2--2-2-2--2-2-2--2-2-2--2-2-|--6-6-6-6-6--6-6-6h7p6-------------|--2--------5------3--|
------------------------------|-----------------------8-7-5-3-5-3-|--0------------------|



                                                                           

--------------------|----------|---------------------|--------------------|
--------------------|----------|---------------------|--------------------|
--------------------|----------|---------------------|--------------------|
----------2------4--|----------|-----------7------5--|----------2------4--|
----------0------2--|----------|--2--------5------3--|----------0------2--|
--------------------|----------|--0------------------|--------------------|



                                                                                    

--------------------------------|-------------------------|------------------------|
--------------------------------|-------------------------|------------------------|
--------------------------------|--5------x-x-7----x-x-9--|--------x-x-7----x-x-5--|
--------------------------------|--5------x-x-7----x-x-9--|--------x-x-7----x-x-5--|
----2-2-2-2-2-2-2-2-2-2-2-2-2-2-|--3------x-x-5----x-x-7--|--------x-x-5----x-x-3--|
--------------------------------|-------------------------|------------------------|



                                                                             

------------------------|-------------------------|-------------------------|
------------------------|-------------------------|-------------------------|
--------x-x-7----x-x----|----------------------2--|--5------x-x-7----x-x-9--|
--------x-x-7----x-x-5--|--------------2-3-3-5----|--5------x-x-7----x-x-9--|
--------x-x-5----x-x-5--|----------0-3------------|--3------x-x-5----x-x-7--|
---------------------3--|-------------------------|-------------------------|



                                                                           

------------------------|--------------------|----------------------------|
------------------------|--------------------|----------------------------|
--------x-x-7----x-x-2--|----------5------0--|--------0------0------0-----|
--------x-x-7----x-x-2--|----------5------0--|--------0------0------0-----|
--------x-x-5----x-x-0--|----------3---------|----------------------------|
------------------------|--------------------|----3-3----3-3----3-3----1--|



                                                                                         

-----------------------------|---------------------------|------------------------------|
-----------------------------|---------------------------|------------------------------|
---0-----0------0------0-----|-------0------0------0-----|------------------------------|
---0-----0------0------0-----|-------2------2------2--5--|--------5------2--------------|
-----------------------------|------------------------3--|----3-3-3--2-2-0--0-0-0-0-----|
-----1-1----1-1----1-1----0--|----0-----0-0----0-0-------|--------------------------3-0-|



                                                                                        

-----------------------------|-----------------------------|---------------------------|
-----------------------------|-----------------------------|---------------------------|
--0------0------0------0-----|---0-----0------0------0-----|-------0------0------0-----|
--0------0------0------0-----|---0-----0------0------0-----|-------2------2------2--5--|
-----------------------------|-----------------------------|------------------------3--|
-----3-3----3-3----3-3----1--|-----1-1----1-1----1-1----0--|----0-----0-0----0-0-------|



                                                                               

------------------------------|-------------------------------|
------------------------------|--------5---------7------------|
------------------------------|------7---------9----------12--|kiko Loureiro
--------5------2--------------|----5---------7----------9-----|
----3-3-3--2-2-0--0-0-0-0-----|--7---------9---------10-------|
--------------------------3-0-|-------------------------------|
                              |                               |
                              |-------------------------------|
  APESAR DAS NOTAS ESTAREM    |------10---------12------------|
  UM POUCO AFASTADAS NA TAB   |----12---------14----------16--|Rafael Bittencourt
  QUASE TODAS SÃO TOCADAS     |--10---------12----------14----|
  JUNTAS                      |10---------12----------14------|
                              |-------------------------------|


                                                                      

--17h19p17p15---------------------------------------------------12~---|
--------------19-17---------------------------------------------------|
--------------------17-14h16p14/12------------------------------------|kiko Loureiro
-----------------------------------16-14------------------------------|
-----------------------------------------15-12-14-12-10---------------|
--------------------------------------------------------14-12-8-------|
                                                                      |   
--20h22p20p19---------------------------------------------------15~---|
--------------22-20---------------------------------------------------|
--------------------21-17h19p17/16------------------------------------|Rafael Bittencourt
-----------------------------------19-17------------------------------|
-----------------------------------------19-15-17-15-14---------------|
--------------------------------------------------------17-15-12------|


-------------------------------|
--------5---------7------------|
------7---------9----------12--|kiko Loureiro
----5---------7----------9-----|
--7---------9---------10-------|
-------------------------------|


-------------------------------|
--------10--------12-----------|
------12--------14---------16--|Rafael Bittencourt
----10--------12---------14----|
--10--------12---------14------|
-------------------------------|


--------------------------------------------------------------------------|
--15h17p15-12h15p12-17-10h12p10--8h10p-8----------------------------------|
------------------------------------------9--7h9p-7-4h7p4-2h4p2-0h2p0-----|kiko Loureiro
----------------------------------------------------------------------2-2-|
--------------------------------------------------------------------------|
--------------------------------------------------------------------------|
                                                                          |
--15h17p15----15-17-------------------------------------------------------|
-----------17-------15h17p15-12h15p12-10h12p10-8h10p8-5h7p5-3h5p3-1h3p1-1-|
--------------------------------------------------------------------------|Rafael Bittencourt
--------------------------------------------------------------------------|
--------------------------------------------------------------------------|
--------------------------------------------------------------------------|


-------------------------------|-----------------------------------|
--------5---------7------------|--10------5---------4-----7-----7--|
------7---------9----------12--|-----------------------------------|Kiko Loureiro
----5---------7----------9-----|-----10-----5-----4-----7-----9----|
--7---------9---------10-------|--------8-----7-6-----9-----9------|
-------------------------------|-----------------------------------|
                                                                   |
-------------------------------|-----------------------------------|
-------10---------12-----------|-----------------------------------|
-----12---------14---------16--|--17------12--------11----14----16-|Rafael Bittencourt
---10---------12---------14----|-----15-----10-----9----12----11---|
-10---------12---------14------|--------15----10-9----12----14-----|
-------------------------------|-----------------------------------|


--------------------------------|----------------------------------------|
--8------7-----------5----------|----------------------------------------|
-------------------6------------|--4-----4--5---5--2----2------5--4--2---|kiko Loureiro
----9------7-----7-----------7--|-----4---------------4-----4----------4-|
------10-----9-4-----------7----|----------------------------------------|
-------------------------5------|----------------------------------------|
                                                                         |
--------------------------------|-------11-12--17-14----17-15p14-12------|
--------------------------------|-12------------------13-------------12--|
-16-----14------------12-----9--|----11----------------------------------|Rafael Bittencourt
---14-----12-----11-14-----7----|----------------------------------------|
-----14-----12-12--------7------|----------------------------------------|
--------------------------------|----------------------------------------|


-----11-14-15-12-------------20-19p17-15----|------11-12--|--|
--------------------------17-------------19-|----12-------|11|
--11-------------12h14-17-------------------|--11---------|--|kiko Loureiro
--------------------------------------------|-------------|--|
--------------------------------------------|-------------|--|
--------------------------------------------|-------------|--|
                                                          |  |
--------------------------------------------|-------------|--|
--------------------------------------------|-------------|--| 
---4-----4--5--------------2-----5--4--2----|---4---4--5--|12|Rafael Bittencourt  
------4----------------4------4-----------4-|-----4-------|--|
----------------3--0------------------------|-------------|--|
--------------------------------------------|-------------|--|



                                                                    

--------------------------|
--------------------------|
--------------------------|solo 1 Kiko Loureiro
--------------5---3---3-5-|
----------------5---5-----|
--------------------------|



                                                                                

-----------------------------------|-------------------------------------------|
---------3-------------------------|--11---------------------------------------|
---------3----------------10-10-12-|------12----10-----------------------------|
---3--------5---3---3-5------------|---------11----12-11-10-10--8------8----10-|
-----5--------5---5----------------|------------------------------10-x---10----|
-------6---------------------------|-------------------------------------------|



                                                                                  

--18-----15-------------------------------|--------------------------------------|
-----17---------18------------------------|--18----18----------------------------|
------------17-----15---------------------|--17----17----17-17-17-15-------17~---|
-----------------------17----15-----------|--------------------------17-15-------|
--------------------------17----17-16-15--|--------------------------------------|
------------------------------------------|--------------------------------------|



                                                                    

-------------------------------------------------------------------|
----------15-18-15----15-------------------------------------------|
----15-17----------17----18-17-15----17-15-------15----------------|
----------------------------------17-------17-15----17p15----------|
----------------------------------------------------------17-16-17-|
-------------------------------------------------------------------|



                                                                        

-----------------------------------------------------------15-20----15-|
-----------------------------------15----------------15-18-------18----|
--------------------15----------------18-17-15-17-18-------------------|
--15-------------------16-15-16-17-------------------------------------|
-----17-16-15-15-17----------------------------------------------------|
-----------------------------------------------------------------------|



                                                                                     

--20r--18p17h18-17-15----15-17-18-18~-------|--19~---------------|
----------------------18--------------------|--------------------|
--------------------------------------------|--------------------|
--------------------------------------------|--------------------|
--------------------------------------------|--------------------|
--------------------------------------------|--------------------|


                                             
                                             

-------------------------------------7------12---------10-12-|
--7-10----------7-------------7-9-10---10-7----0-10-12-------|
-------9-7-9-10---10-9-7-9-10--------------------------------|solo 2 Rafael Bittencourt
-------------------------------------------------------------|
-------------------------------------------------------------|
-------------------------------------------------------------|



                                                                         

--14-10-----------------------------------------------------------------|
--------12--------------------------------------------------------------|
-----------11----------------11-10-10-12-11----11-----------------------|
--------------12----------12----------------14----12-14-11-12-11-12-11--|
-----------------14-12-14-----------------------------------------------|
------------------------------------------------------------------------|



                                                   

--5-----------------------------------------------|
----5---8-5-5-7p5---5-------------5---8p5---7p5/3-|
------6-----------6---6-7-------6---6-----6-------|
--------------------------5-6-7-------------------|
--------------------------------------------------|
--------------------------------------------------|



                                                                                 

--7-3---3-5h7-------3---10p7---7h9h10--------7------|---------------------------|
------3-------3h5h7---7------7--------7h8h10---10p7-|--14-------14p12-15~-------|
----------------------------------------------------|---------------------------|
----------------------------------------------------|---------------------------|
----------------------------------------------------|---------------------------|
----------------------------------------------------|---------------------------|



                                                        

------17----17-----------------------------------------|
--17-----17----17-17p15----15-----14----14----14-------|
------------------------16----16-----16----16----14----|
-------------------------------------------------------|
-------------------------------------------------------|
-------------------------------------------------------|



                                                                    

--17--------------------17-19/21-17----17--------------------------|
--17--------------17-20-------------20----20-19-17-14h15p14h15-14--|
---------------18--------------------------------------------------|
------19-17-19-----------------------------------------------------|
-------------------------------------------------------------------|
-------------------------------------------------------------------|



                                                                                          

------22-----22------22~--22----|
--22-----22-----22--------------|
--------------------------------|
--------------------------------|
--------------------------------|
--------------------------------|


----------------------------10-13-15-10-17-13-------15-12-------17-13-|
----------------------11-13-------------------15----------13----------|
----------------10-12----------------------------14----------12-------|solo 3 Kiko Loureiro
----------10-12-------------------------------------------------------|
--8-10-12-------------------------------------------------------------|
----------------------------------------------------------------------|



                                                                               

--------19-16-------22-18-------22----22--22--22--|--22-----22-----24~--------|
--15----------18----------20----------------------|------------20-------------|
-----14----------17----------19-------------------|------------------------x--|
--------------------------------------------------|------------------------x--|
--------------------------------------------------|------------------------x--|
--------------------------------------------------|---------------------------|



                                                          

------17-22----17-20----17-------------------------------|
--20--------20-------21----21-20-18----------------------|
------------------------------------19-17----------------|
------------------------------------------19-16-17-15----|
---------------------------------------------------------|
---------------------------------------------------------|



                                                               

--------------------------------------------------------------|
-----------------------15-18p15----15----------------15-------|
-----------14-------14----------14----14----------14----14-15-|
--------15-------15----------------------15----15-------------|
--17~---------17----------------------------17----------------|
--------------------------------------------------------------|



                                                                        

-----------------15-------20-15----15h17p15-20p15h20h22p20p15-20p15/13h|
--18p15----15h18----18-15-------18-------------------------------------|
--------14-------------------------------------------------------------|
-----------------------------------------------------------------------|
-----------------------------------------------------------------------|
-----------------------------------------------------------------------|



                                                               

--13h17p13h17-13----13----------------------------------------|
-----------------15----15----15-------------------------------|
--------------------------14----14----14----------------------|
-----------------------------------15----15-14----------------|
-----------------------------------------------17-15-13/12----|
--------------------------------------------------------------|



                                                                           

--------------------------------10-13-15-10-------------------------------|----------------------|
--------------------------10-13-------------13-10-------13-12p10-------10-|----------------------|
--------------------10-12-------------------------13-10----------13-12----|--12~-------12--------|
--------------10-12-------------------------------------------------------|----------------------|
--------10-12-------------------------------------------------------------|----------------------|
--10-13-------------------------------------------------------------------|----------------------|


-------------------------------|-----------------------------------|
--------5---------7------------|--10------5---------4-----7-----7--|
------7---------9----------12--|-----------------------------------|Kiko Loureiro
----5---------7----------9-----|-----10-----5-----4-----7-----9----|
--7---------9---------10-------|--------8-----7-6-----9-----9------|
-------------------------------|-----------------------------------|
                                                                   |
-------------------------------|-----------------------------------|
-------10-------12-------------|-----------------------------------|
-----12-------14-----------16--|--17------12--------11----14----16-|Rafael Bittencourt
---10-------12----------14-----|----15------10-----9----12----11---|
-10-------12----------14-------|------15------10-9----12----14-----|
-------------------------------|-----------------------------------|

  
                                             
                                            

---------------------|--------------------|
---------------------|--------------------|
---------------------|--------------------|Kiko loureiro e Rafael Bittencourt
-----------7------5--|----------2------4--|
--2--------5------3--|----------0------2--|
--0------------------|--------------------|



                                                                           

|----------|---------------------|--------------------|
|----------|---------------------|--------------------|
|----------|---------------------|--------------------|
|-(4)------|-----------7------5--|----------2------4--|
|-(2)------|--2--------5------3--|----------0------2--|
|----------|--0------------------|--------------------|



                                                                                    

--------------------------------|-------------------------|------------------------|
--------------------------------|-------------------------|------------------------|
--------------------------------|--5------x-x-7----x-x-9--|--------x-x-7----x-x-5--|
--------------------------------|--5------x-x-7----x-x-9--|--------x-x-7----x-x-5--|
----2-2-2-2-2-2-2-2-2-2-2-2-2-2-|--3------x-x-5----x-x-7--|--------x-x-5----x-x-3--|
--------------------------------|-------------------------|------------------------|



                                                                             

------------------------|-------------------------|-------------------------|
------------------------|-------------------------|-------------------------|
--------x-x-7----x-x----|----------------------2--|--5------x-x-7----x-x-9--|
--------x-x-7----x-x-5--|--------------2-3-3-5----|--5------x-x-7----x-x-9--|
--------x-x-5----x-x-5--|----------0-3------------|--3------x-x-5----x-x-7--|
---------------------3--|-------------------------|-------------------------|



                                                                           

------------------------|--------------------|----------------------------|
------------------------|--------------------|----------------------------|
--------x-x-7----x-x-2--|----------5------0--|--------0------0------0-----|
--------x-x-7----x-x-2--|----------5------0--|--------0------0------0-----|
--------x-x-5----x-x-0--|----------3---------|----------------------------|
------------------------|--------------------|----3-3----3-3----3-3----1--|



                                                                                         

-----------------------------|---------------------------|------------------------------|
-----------------------------|---------------------------|------------------------------|
---0-----0------0------0-----|-------0------0------0-----|------------------------------|
---0-----0------0------0-----|-------2------2------2--5--|--------5------2--------------|
-----------------------------|------------------------3--|----3-3-3--2-2-0--0-0-0-0-----|
-----1-1----1-1----1-1----0--|----0-----0-0----0-0-------|--------------------------3-0-|



                                                                      

------------------------------------|--------------------------------|
------------------------------------|--------------------------------|
------------------------------------|--------------------------------|
------7--7/9-----12/11---12----11/9-|------7--7/9-----5/4---7----5/4-|
------5--5/7-----10/9----10----9/-7-|------5--5/7-----3/2---5----3/2-|
--0-0--------0-0-------0-----0------|--0-0--------0-0-----0----0-----|



                                                                               

-----------------------------------|-----------------------|------------------|
-----------------------------------|------------------3----|--(3)-------------|
-----------------------------------|--------------0---2----|--(2)-------------|
------7--7/9-----12/11---12----11--|--5---4---2---0---4----|--(4)-------------|
------5--5/7-----10/9----10----9---|--3---2---0------------|------------------|
--0-0--------0-0-------0-----0-----|-----------------------|------------------|



                     

-------------------||
-------------------||
-------------------||
-------------------||
--2----------------||
--0----------------||                                              

                                                
  • 1
  • 2
  • 3
  • 4
  • 5
  • 6
  • 7
  • 8
  • 9
  • 10
  • 11
  • 12
    Acordes para:
      Composição: Bittencourt / Loureiro / MatosColaboração e revisão:
      • Celso

      0 comentários

        mostrar mais comentários

        Conseguiu tocar?

        0tocaram0ainda não

        Grave um vídeo tocando Extreme Dream e mande pra gente!

        00:00 / 00:00
        outros vídeos desta música
        repetirqualidadeautomática
        • automática
        Outro vídeos desta música
          00:00 / 00:00
          automática
          • automática
          Acordes para:violão e guitarra
          dificuldadeexibiçõescontribuições
          3 versões de Guitar Proformatodownloadscontribuição
          fecharplay/pause subir/descer velocidade
            Acordes para:violão e guitarra
            acordes
            fechar
            OK