Cifra Club

Hunters and Pray

Angra

Cifra: Principal
exibições 21.500
Tom: G
E||--------------------------|-----------------------------|
B||--------------------------|-----------------------------|
G||-----7--5--7---5--4-5--7--|--5-2--4-0--2----------------|
D||--7--7--5--7---5--4-5--7--|--5-2--4-0--2--------------5-|
A||--5-----------------------|----------------0-2-4-5-2----|
E||--------------------------|-----------------------------|


                                                                              
--------------------------|-----------------------|--------------------------|
--------------------------|-----------------------|--------------------------|
-----7--5--9---7--5-7--4--|--5-2--2-4--2----------|-----7--5--7---5--4-5--4--|
--7--7--5--9---7--5-7--4--|--5-2--2-4--2----------|--7--7--5--7---5--4-5--4--|
--5-----------------------|-----------------------|--5-----------------------|
--------------------------|-----------------------|--------------------------|


                                                         
-----------------------------|--------------------------|
-----------------------------|--------------------------|
--5-2--4-0--2----------------|-----7--5--9---7--5-7--4--|
--5-2--4-0--2--------------5-|--7--7--5--9---7--5-7--4--|
----------------0-2-4-5-2----|--5-----------------------|
-----------------------------|--------------------------|


                                                   
-----------------------|--------------------------|
-----------------------|--------------------------|
--5-2--4-0--2----------|-----7--5--7---5--4-5--7--|
--5-2--4-0--2----------|--7--7--5--7---5--4-5--7--|
-----------------------|--5-----------------------|
-----------------------|--------------------------|


                                                         
-----------------------------|--------------------------|
-----------------------------|--------------------------|
--5-2--4-0--2----------------|-----7--5--9---7--5-7--4--|
--5-2--4-0--2--------------5-|--7--7--5--9---7--5-7--4--|
----------------0-2-4-5-2----|--5-----------------------|
-----------------------------|--------------------------|


                                                   
-----------------------|--------------------------|
-----------------------|--------------------------|
--5-2--4-0--2----------|-----7--5--7---5--4-5--4--|
--5-2--4-0--2----------|--7--7--5--7---5--4-5--4--|
-----------------------|--5-----------------------|
-----------------------|--------------------------|


                                                         
-----------------------------|--------------------------|
-----------------------------|--------------------------|
--5-2--4-0--2----------------|-----7--5--9---7--5-7--4--|
--5-2--4-0--2--------------5-|--7--7--5--9---7--5-7--4--|
----------------0-2-4-5-2----|--5-----------------------|
-----------------------------|--------------------------|


                                                   
-----------------------|--------------------------|
-----------------------|--------------------------|
--5-2--4-0--2----------|-----7--5--7---5--4-5--4--|
--5-2--4-0--2----------|--7--7--5--7---5--4-5--4--|
-----------------------|--5-----------------------|
-----------------------|--------------------------|


                                                         
-----------------------------|--------------------------|
-----------------------------|--------------------------|
--5-2--4-0--2----------------|-----7--5--9---7--5-7--4--|
--5-2--4-0--2--------------5-|--7--7--5--9---7--5-7--4--|
----------------0-2-4-5-2----|--5-----------------------|
-----------------------------|--------------------------|


                                                         
-----------------------|--------------------------------|
-----------------------|--------------------------------|
--5-2--4-0--2----------|--------------------------------|
--5-2--4-0--2----------|--0-0-0-0-10--0-0-9--0-0-7-0-4~-|
-----------------------|--------------------------------|
-----------------------|--------------------------------|


                                                                
-------------------------------|-------------------------------|
-------------------------------|-------------------------------|
-------------------------------|----------------------------9--|
----0-0-4h5-0-0-4h2-0-0-2h0-4--|----0-0-10-0-9-0-7-0-5-0-4-----|
-------------------------------|-------------------------------|
-------------------------------|-------------------------------|


                                                              
----------------------------|--------------------------------|
----------------------------|--------------------------------|
----7-4-5----------------7--|--------------------------------|
----------0--5-7-5--0-5-----|--0-0-0-0-10--0-0-9--0-0-7-0-4~-|
----------------------------|--------------------------------|
----------------------------|--------------------------------|


                                                                
-------------------------------|-------------------------------|
-------------------------------|-------------------------------|
-------------------------------|----------------------------9--|
----0-0-4h5-0-0-4h2-0-0-2h0-4--|----0-0-10-0-9-0-7-0-5-0-4-----|
-------------------------------|-------------------------------|
-------------------------------|-------------------------------|


                                                              
----------------------------|--------------------------------|
----------------------------|--------------------------------|
----7-4-5----------------7--|--------------------------------|
----------0--5-7-5--0-5-----|--0-0-0-0-10--0-0-9--0-0-7-0-4~-|
----------------------------|--------------------------------|
----------------------------|--------------------------------|


                                                                
-------------------------------|-------------------------------|
-------------------------------|-------------------------------|
-------------------------------|----------------------------9--|
----0-0-4h5-0-0-4h2-0-0-2h0-4--|----0-0-10-0-9-0-7-0-5-0-4-----|
-------------------------------|-------------------------------|
-------------------------------|-------------------------------|


                                                             
----------------------------|-------------------------------|
----------------------------|-------------------------------|
----7-4-5----------------7--|-------------------------------|
----------0--5-7-5--0-5-----|----0-0-5h0-0-0-4h0-0-0-2h0-4--|
----------------------------|-------------------------------|
----------------------------|-------------------------------|


                                                                
-------------------------------|-------------------------------|
-------------------------------|-------------------------------|
-------------------------------|-------------------------------|
----0-0-5h0-0-0-4h0-0-0-2h0-0--|----0-0-5h0-0-0-4h0-0-0-2h0-4--|
-------------------------------|-------------------------------|
-------------------------------|-------------------------------|


                                                                 
-------------------------------|--------------------------------|
-------------------------------|--------------------------------|
-------------------------------|--------------------------------|
----0-0-5h0-0-0-4h0-0-0-2h0-0--|--0-0-0-0-10--0-0-9--0-0-7-0-4~-|
-------------------------------|--------------------------------|
-------------------------------|--------------------------------|


                                                                
-------------------------------|-------------------------------|
-------------------------------|-------------------------------|
-------------------------------|----------------------------9--|
----0-0-4h5-0-0-4h2-0-0-2h0-4--|----0-0-10-0-9-0-7-0-5-0-4-----|
-------------------------------|-------------------------------|
-------------------------------|-------------------------------|


                                                                           
----------------------------|----------------------|----------------------|
----------------------------|----------------------|----------------------|
----7-4-5----------------7--|----------------------|----------------10----|
----------0--5-7-5--0-5-----|------5--7------5--7--|------5--7------10----|
----------------------------|------3--5------3--5--|------3--5------8-----|
----------------------------|----------------------|----------------------|


                                                                          
----------------------|---------------------|----------------------------|
----------------------|---------------------|----------------------------|
----------------------|---------------------|----------------------------|
------5--7------5--7--|------5--7------9----|----------------------------|
------3--5------3--5--|------3--5------9----|--5-5--5---5-5-5-5--5---5-5-|
----------------------|----------------7----|----------------------------|


                                                          
----------------------------|----------------------------|
----------------------------|----------------------------|
----------------------------|----------------------------|
----------------------------|----------------------------|
--5-5--5---5-5-5-5--5---5-5-|--5-5--5---5-5-5-5--5---5-5-|
----------------------------|----------------------------|


                                                          
----------------------------|----------------------------|
----------------------------|----------------------------|
----------------------------|----------------------------|
----------------------------|----------------------------|
---------------5-5--5---5-5-|--5-5--5---5-5--------------|
--5-5--5---5-5--------------|---------------3-3--3---3-3-|


                                                          
----------------------------|----------------------------|
----------------------------|----------------------------|
----------------------------|----------------------------|
----------------------------|----------------------------|
--2-2--2---2-2-5-5--5---5-5-|--5-5--5---5-5-5-5--5---5-5-|
----------------------------|----------------------------|


                                                                          
----------------------------|----------------------------|---------------|
----------------------------|----------------------------|---------------|
----------------------------|----------------------------|---------------|
----------------------------|----------------------------|---------------|
---------------5-5--5---5-5-|--5-5--5---5-5-7-7--7---7-7-|---------------|
--5-5--5---5-5--------------|----------------------------|--5-5--5---5-5-|


                                                         
--------------------------|-----------------------------|
--------------------------|-----------------------------|
-----7--5--7---5--4-5--7--|--5-2--4-0--2----------------|
--7--7--5--7---5--4-5--7--|--5-2--4-0--2--------------5-|
--5-----------------------|----------------0-2-4-5-2----|
--------------------------|-----------------------------|


                                                                                
--------------------------|-----------------------|----------------------------|
--------------------------|-----------------------|----------------------------|
-----7--5--9---7--5-7--4--|--5-2--4-0--2----------|----------------------------|
--7--7--5--9---7--5-7--4--|--5-2--4-0--2----------|----------------------------|
--5-----------------------|-----------------------|--5-5--5---5-5-5-5--5---5-5-|
--------------------------|-----------------------|----------------------------|


                                                          
----------------------------|----------------------------|
----------------------------|----------------------------|
----------------------------|----------------------------|
----------------------------|----------------------------|
---------------5-5--5---5-5-|--5-5--5---5-5--------------|
--5-5--5---5-5--------------|---------------3-3--3---3-3-|


                                                          
----------------------------|----------------------------|
----------------------------|----------------------------|
----------------------------|----------------------------|
----------------------------|----------------------------|
--2-2--2---2-2-5-5--5---5-5-|--5-5--5---5-5-5-5--5---5-5-|
----------------------------|----------------------------|


                                                                         
----------------------------|----------------------------|--------------|
----------------------------|----------------------------|--------------|
----------------------------|----------------------------|-----------7--|
----------------------------|----------------------------|-----------7--|
---------------5-5--5---5-5-|--5-5--5---5-5-7-7--7---7-7-|-----------5--|
--5-5--5---5-5--------------|----------------------------|--5-5--5------|


                                                                   
---------------------------|-------------------|------------------|
---------------------------|-------------------|------------------|
-----5-5-5--5-5-5--5-5--4--|-------------------|------------------|
-----5-5-5--5-5-5--5-5--4--|----------------2--|------------------|
-----3-3-3--3-3-3--3-3--2--|----------------2--|------------------|
---------------------------|----------------0--|------------------|


                                                                                
--------------------|------------------|--------------------|------------------|
--------------------|------------------|--------------------|------------------|
-----------------7--|------------------|--4-----------------|------------------|
--5--------------7--|------------------|--4--------------2--|------------------|
--5--------------5--|------------------|--2--------------2--|------------------|
--3-----------------|------------------|-----------------0--|------------------|


                                                                         
------------------------|----------------------|------------------------|
------------------------|----------------------|------------------------|
------------------------|----------------------|------------------------|
--5----5--5----5--5--5--|----7--7----7----7----|--5----5--5----5--5--5--|
--5----5--5----5--5--5--|----7--7----7----7----|--5----5--5----5--5--5--|
--3----3--3----3--3--3--|----5--5----5----5----|--3----3--3----3--3--3--|


                                                                             
-------------------|------------------|------------------|------------------|
-------------------|------------------|------------------|------------------|
-------------------|------------------|------------------|------------------|
--4----------------|------------------|------------------|------------------|
--4----------------|------------------|------------------|------------------|
--2----------------|------------------|------------------|------------------|


                                                                            
------------------|------------------|------------------|------------------|
------------------|------------------|------------------|------------------|
------------------|------------------|------------------|------------------|
------------------|------------------|------------------|------------------|
------------------|------------------|------------------|------------------|
------------------|------------------|------------------|------------------|


                                                                            
------------------|------------------|------------------|------------------|
------------------|------------------|------------------|------------------|
------------------|------------------|------------------|------------------|
------------------|------------------|------------------|------------------|
------------------|------------------|------------------|------------------|
------------------|------------------|------------------|------------------|


                                                                            
------------------|------------------|------------------|------------------|
------------------|------------------|------------------|------------------|
------------------|------------------|------------------|------------------|
------------------|------------------|------------------|------------------|
------------------|------------------|------------------|------------------|
------------------|------------------|------------------|------------------|


                                                    
------------------|--------------------------------|
------------------|--------------------------------|
------------------|--------------------------------|
------------------|--0-0-0-0-10--0-0-9--0-0-7-0-4~-|
------------------|--------------------------------|
------------------|--------------------------------|


                                                                
-------------------------------|-------------------------------|
-------------------------------|-------------------------------|
-------------------------------|----------------------------9--|
----0-0-4h5-0-0-4h2-0-0-2h0-4--|----0-0-10-0-9-0-7-0-5-0-4-----|
-------------------------------|-------------------------------|
-------------------------------|-------------------------------|


                                                              
----------------------------|--------------------------------|
----------------------------|--------------------------------|
----7-4-5----------------7--|--------------------------------|
----------0--5-7-5--0-5-----|--0-0-0-0-10--0-0-9--0-0-7-0-4~-|
----------------------------|--------------------------------|
----------------------------|--------------------------------|


                                                                
-------------------------------|-------------------------------|
-------------------------------|-------------------------------|
-------------------------------|----------------------------9--|
----0-0-4h5-0-0-4h2-0-0-2h0-4--|----0-0-10-0-9-0-7-0-5-0-4-----|
-------------------------------|-------------------------------|
-------------------------------|-------------------------------|


                                                                           
----------------------------|----------------------|----------------------|
----------------------------|----------------------|----------------------|
----7-4-5----------------7--|----------------------|----------------10----|
----------0--5-7-5--0-5-----|------5--7------5--7--|------5--7------10----|
----------------------------|------3--5------3--5--|------3--5------8-----|
----------------------------|----------------------|----------------------|


                                                                   
----------------------|---------------------|---------------------|
----------------------|---------------------|---------------------|
----------------------|---------------------|----------6---7---9--|
------5--7------5--7--|------5--7------9----|---------------------|
------3--5------3--5--|------3--5------9----|---------------------|
----------------------|----------------7----|---------------------|


                                                                      
----------------------|----------------------|-----------------------|
----------------------|----------------------|-----------------------|
--9------7-6-7--------|----------7---9---10--|--10------9-7-9--------|
----------------------|----------------------|-----------------------|
----------------------|----------------------|-----------------------|
----------------------|----------------------|-----------------------|


                                                  
-----------------------|-------------------------|
-----------------------|-------------------------|
----------9---10---12--|--12----10----9----10----|
-----------------------|-------------------------|
-----------------------|-------------------------|
-----------------------|-------------------------|


                                                               
-----------------------------------------|--------------------|
-----------------------------------------|--------------------|
--14-------------------------------11-13-|--15----------------|
--------------------------11-12-14-------|--------------------|
-----------------11-12-14----------------|--------------------|
--------------14-------------------------|--------------------|


                                                                    
---------------------|----------------------|----------------------|
---------------------|----------------------|----------------------|
----------6---7---9--|--9------7-6-7--------|----------7---9---10--|
---------------------|----------------------|----------------------|
---------------------|----------------------|----------------------|
---------------------|----------------------|----------------------|


                                                                          
-----------------------|-----------------------|-------------------------|
-----------------------|-----------------------|-------------------------|
--10------9-7-9--------|----------9---10---12--|--12----10----9----10----|
-----------------------|-----------------------|-------------------------|
-----------------------|-----------------------|-------------------------|
-----------------------|-----------------------|-------------------------|


                                                                                
--------------------|--------------------|------------------|------------------|
--------------------|--------------------|------------------|------------------|
--14----------------|--15----------------|------------------|------------------|
--------------------|--------------------|------------------|------------------|
--------------------|--------------------|------------------|------------------|
--------------------|--------------------|------------------|------------------|


                                                                            
------------------|------------------|------------------|------------------|
------------------|------------------|------------------|------------------|
------------------|------------------|------------------|------------------|
------------------|------------------|------------------|------------------|
------------------|------------------|------------------|------------------|
------------------|------------------|------------------|------------------|


                                                                            
------------------|------------------|------------------|------------------|
------------------|------------------|------------------|------------------|
------------------|------------------|------------------|------------------|
------------------|------------------|------------------|------------------|
------------------|------------------|------------------|------------------|
------------------|------------------|------------------|------------------|


                                                                            
------------------|------------------|------------------|------------------|
------------------|------------------|------------------|------------------|
------------------|------------------|------------------|------------------|
------------------|------------------|------------------|------------------|
------------------|------------------|------------------|------------------|
------------------|------------------|------------------|------------------|


                                                                 
----------------------6-5------|--------------------------------|
--------6-5---------6-----8-6--|-----------------------9-8-6----|
------7-----7-5---7------------|-------------------5-7-------8--|
--5-8--------------------------|---8-7-5---5-8-5-8--------------|
-------------------------------|---------8----------------------|
-------------------------------|--------------------------------|


                                                                         
--------------------------------|-------------------|-------------------|
-----------------------8-6------|-------------------|-------------------|
---6-6-5-5-----------------8----|-------------------|--7----------------|
-----------8-8-6-6-5-8-------5--|----------7--------|--7----------------|
-----------------------------5--|----------7--------|--5----------------|
-----------------------------3--|----------5--------|-------------------|


                                                                               
------------------|-------------------|-------------------|-------------------|
------------------|-------------------|-------------------|-------------------|
------------------|--5----------------|-------------------|--7----------------|
------------------|--5----------------|--5----------------|--7----------------|
------------------|--3----------------|--5----------------|--5----------------|
------------------|-------------------|--3----------------|-------------------|


                                                           
------------------|-------------------|-------------------|
------------------|-------------------|-------------------|
------------------|-------------------|--2----------------|
------------------|--3----------------|--2----------------|
------------------|--3----------------|--0----------------|
------------------|--1----------------|-------------------|


                                                                    
----------------------------|-------------------|------------------|
----------------------------|-------------------|------------------|
--7---5-5-5--5-5-5--5-5--4--|-------------------|------------------|
--7---5-5-5--5-5-5--5-5--4--|----------------2--|------------------|
--5---3-3-3--3-3-3--3-3--2--|----------------2--|------------------|
----------------------------|----------------0--|------------------|


                                                                                
--------------------|------------------|--------------------|------------------|
--------------------|------------------|--------------------|------------------|
-----------------7--|------------------|--4-----------------|------------------|
--5--------------7--|------------------|--4--------------2--|------------------|
--5--------------5--|------------------|--2--------------2--|------------------|
--3-----------------|------------------|-----------------0--|------------------|


                                                                         
------------------------|----------------------|------------------------|
------------------------|----------------------|------------------------|
------------------------|----------------------|------------------------|
--5----5--5----5--5--5--|----7--7----7----7----|--5----5--5----5--5--5--|
--5----5--5----5--5--5--|----7--7----7----7----|--5----5--5----5--5--5--|
--3----3--3----3--3--3--|----5--5----5----5----|--3----3--3----3--3--3--|


                                                                             
-------------------|------------------|------------------|------------------|
-------------------|------------------|------------------|------------------|
-------------------|------------------|------------------|------------------|
--4----------------|------------------|------------------|------------------|
--4----------------|------------------|------------------|------------------|
--2----------------|------------------|------------------|------------------|


                                                                            
------------------|------------------|------------------|------------------|
------------------|------------------|------------------|------------------|
------------------|------------------|------------------|------------------|
------------------|------------------|------------------|------------------|
------------------|------------------|------------------|------------------|
------------------|------------------|------------------|------------------|


                                                                            
------------------|------------------|------------------|------------------|
------------------|------------------|------------------|------------------|
------------------|------------------|------------------|------------------|
------------------|------------------|------------------|------------------|
------------------|------------------|------------------|------------------|
------------------|------------------|------------------|------------------|


                                                                            
------------------|------------------|------------------|------------------|
------------------|------------------|------------------|------------------|
------------------|------------------|------------------|------------------|
------------------|------------------|------------------|------------------|
------------------|------------------|------------------|------------------|
------------------|------------------|------------------|------------------|


                                                    
------------------|--------------------------------|
------------------|--------------------------------|
------------------|--------------------------------|
------------------|--0-0-0-0-10--0-0-9--0-0-7-0-4~-|
------------------|--------------------------------|
------------------|--------------------------------|


                                                                
-------------------------------|-------------------------------|
-------------------------------|-------------------------------|
-------------------------------|----------------------------9--|
----0-0-4h5-0-0-4h2-0-0-2h0-4--|----0-0-10-0-9-0-7-0-5-0-4-----|
-------------------------------|-------------------------------|
-------------------------------|-------------------------------|


                                                              
----------------------------|--------------------------------|
----------------------------|--------------------------------|
----7-4-5----------------7--|--------------------------------|
----------0--5-7-5--0-5-----|--0-0-0-0-10--0-0-9--0-0-7-0-4~-|
----------------------------|--------------------------------|
----------------------------|--------------------------------|


                                                                
-------------------------------|-------------------------------|
-------------------------------|-------------------------------|
-------------------------------|----------------------------9--|
----0-0-4h5-0-0-4h2-0-0-2h0-4--|----0-0-10-0-9-0-7-0-5-0-4-----|
-------------------------------|-------------------------------|
-------------------------------|-------------------------------|


                                                               
----------------------------|-----------------------------12--|
-------------------------7--|----------------10-9--10-14------|
----7-4-5-------------------|----9-6--------------------------|
----------0--5-7-5--0-5-----|--------8----11------------------|
----------------------------|----------9----------------------|
----------------------------|---------------------------------|


                                                                 
------------------------------------|---------------------------|
----9-10-9--------------------------|---------------------------|
------------11-9--------------------|------5-5-5--5-5-5--5-5--7-|
-----------------12-9-----------12--|------5-5-5--5-5-5--5-5--7-|
----------------------12-10-12------|------3-3-3--3-3-3--3-3--5-|
------------------------------------|---------------------------|


                    
------------------||
------------------||
------------------||
------------------||
------------------||
------------------||


                                Hunters and Pray                               


                                                               Rafael Bitencourt
Guitarra



                                                                     
E||---------------------------------|-------------------------------|
B||---------------------------------|-------------------------------|
G||---------------------------------|-------------------------------|
D||--0--0-0-0-0-0-0-0-0-0-0-0-0-0-0-|--0-0-0-0-0-0-0--------------5-|
A||---------------------------------|------------------0-2-4-5-2----|
E||---------------------------------|-------------------------------|


                                                            
---------------------------------|-------------------------|
---------------------------------|-------------------------|
---------------------------------|-------------------------|
--0--0-0-0-0-0-0-0-0-0-0-0-0-0-0-|--0-0-0-0-0-0-0----------|
---------------------------------|-------------------------|
---------------------------------|-------------------------|


                                                                  
---------------------------------|-------------------------------|
---------------------------------|-------------------------------|
---------------------------------|-------------------------------|
--0--0-0-0-0-0-0-0-0-0-0-0-0-0-0-|--0-0-0-0-0-0-0--------------5-|
---------------------------------|------------------0-2-4-5-2----|
---------------------------------|-------------------------------|


                                                            
---------------------------------|-------------------------|
---------------------------------|-------------------------|
---------------------------------|-------------------------|
--0--0-0-0-0-0-0-0-0-0-0-0-0-0-0-|--0-0-0-0-0-0-0----------|
---------------------------------|-------------------------|
---------------------------------|-------------------------|


                                                                  
---------------------------------|-------------------------------|
---------------------------------|-------------------------------|
---------------------------------|-------------------------------|
--0--0-0-0-0-0-0-0-0-0-0-0-0-0-0-|--0-0-0-0-0-0-0--------------5-|
---------------------------------|------------------0-2-4-5-2----|
---------------------------------|-------------------------------|


                                                                                
---------------------------------|-------------------------|-------------------|
---------------------------------|-------------------------|-------------------|
---------------------------------|-------------------------|--7----------------|
--0--0-0-0-0-0-0-0-0-0-0-0-0-0-0-|--0-0-0-0-0-0-0----------|--7----------------|
---------------------------------|-------------------------|--5----------------|
---------------------------------|-------------------------|-------------------|


                                                                               
------------------|-------------------|-------------------|-------------------|
------------------|-------------------|-------------------|-------------------|
------------------|--5----------------|-------------------|--7----------------|
------------------|--5----------------|--5----------------|--7----------------|
------------------|--3----------------|--5----------------|--5----------------|
------------------|-------------------|--3----------------|-------------------|


                                                                               
------------------|-------------------|-------------------|-------------------|
------------------|-------------------|-------------------|-------------------|
------------------|-------------------|-------------------|--7----------------|
------------------|--3----------------|--7----------------|--7----------------|
------------------|--3----------------|--7----------------|--5----------------|
------------------|--1----------------|--5----------------|-------------------|


                                                                           
-------------------------|-------------------|----------------------------|
-------------------------|-------------------|----------------------------|
-------------------------|----------------9--|----7-4-5----------------7--|
----------4h2-0-0-2h0-4--|-------------------|----------0--5-7-5--0-5-----|
-------------------------|-------------------|----------------------------|
-------------------------|-------------------|----------------------------|


                                                                 
--------------------------------|-------------------------------|
--------------------------------|-------------------------------|
--------------------------------|-------------------------------|
--0-0-0-0-10--0-0-9--0-0-7-0-4~-|----0-0-4h5-0-0-4h2-0-0-2h0-4--|
--------------------------------|-------------------------------|
--------------------------------|-------------------------------|


                                                              
-------------------------------|-----------------------------|
-------------------------------|-----------------------------|
----------------------------9--|----7-4-5-----------------7--|
----0-0-10-0-9-0-7-0-5-0-4-----|----------0--5-7-5--0-4h5----|
-------------------------------|-----------------------------|
-------------------------------|-----------------------------|


                                                                 
--------------------------------|-------------------------------|
--------------------------------|-------------------------------|
--------------------------------|-------------------------------|
--0-0-0-0-10--0-0-9--0-0-7-0-4~-|----0-0-4h5-0-0-4h2-0-0-2h0-4--|
--------------------------------|-------------------------------|
--------------------------------|-------------------------------|


                                                              
-------------------------------|-----------------------------|
-------------------------------|-----------------------------|
----------------------------9--|----7-4-5-----------------7--|
----0-0-10-0-9-0-7-0-5-0-4-----|----------0--5-7-5--0-4h5----|
-------------------------------|-----------------------------|
-------------------------------|-----------------------------|


                                                                
-------------------------------|-------------------------------|
-------------------------------|-------------------------------|
-------------------------------|-------------------------------|
----0-0-5h0-0-0-4h0-0-0-2h0-4--|----0-0-5h0-0-0-4h0-0-0-2h0-0--|
-------------------------------|-------------------------------|
-------------------------------|-------------------------------|


                                                 
----------------------|-------------------------|
-------------------5--|-------------------------|
------5---------------|-------------------------|
-----------7----4-----|----7--5--7--4--7--2--7--|
----------------------|-------------------------|
----------------------|-------------------------|


                                                                 
--------------------------------|-------------------------------|
--------------------------------|-------------------------------|
--------------------------------|-------------------------------|
--0-0-0-0-10--0-0-9--0-0-7-0-4~-|----0-0-4h5-0-0-4h2-0-0-2h0-4--|
--------------------------------|-------------------------------|
--------------------------------|-------------------------------|


                                                             
-------------------------------|----------------------------|
-------------------------------|----------------------------|
----------------------------9--|----7-4-5----------------7--|
----0-0-10-0-9-0-7-0-5-0-4-----|----------0--5-7-5--0-5-----|
-------------------------------|----------------------------|
-------------------------------|----------------------------|


                                                                     
----------------------|----------------------|----------------------|
----------------------|----------------------|----------------------|
----------------------|----------------10----|----------------------|
------5--7------5--7--|------5--7------10----|------5--7------5--7--|
------3--5------3--5--|------3--5------8-----|------3--5------3--5--|
----------------------|----------------------|----------------------|


                                                                                
---------------------|----------------------------|----------------------------|
---------------------|----------------------------|----------------------------|
---------------------|----------------------------|----------------------------|
------5--7------9----|----------------------------|----------------------------|
------3--5------9----|--5-5--5---5-5-5-5--5---5-5-|--5-5--5---5-5-5-5--5---5-5-|
----------------7----|----------------------------|----------------------------|


                                                          
----------------------------|----------------------------|
----------------------------|----------------------------|
----------------------------|----------------------------|
----------------------------|----------------------------|
--5-5--5---5-5-5-5--5---5-5-|---------------5-5--5---5-5-|
----------------------------|--5-5--5---5-5--------------|


                                                          
----------------------------|----------------------------|
----------------------------|----------------------------|
----------------------------|----------------------------|
----------------------------|----------------------------|
--5-5--5---5-5--------------|--2-2--2---2-2-5-5--5---5-5-|
---------------3-3--3---3-3-|----------------------------|


                                                          
----------------------------|----------------------------|
----------------------------|----------------------------|
----------------------------|----------------------------|
----------------------------|----------------------------|
--5-5--5---5-5-5-5--5---5-5-|---------------5-5--5---5-5-|
----------------------------|--5-5--5---5-5--------------|


                                                                 
----------------------------|---------------|-------------------|
----------------------------|---------------|-------------------|
----------------------------|---------------|--7----------------|
----------------------------|---------------|--7----------------|
--5-5--5---5-5-7-7--7---7-7-|---------------|--5----------------|
----------------------------|--5-5--5---5-5-|-------------------|


                                                            
-------------------|-------------------|-------------------|
-------------------|-------------------|-------------------|
--5----------------|--7----------------|-------------------|
--5----------------|--7----------------|--5----------------|
--3----------------|--5----------------|--5----------------|
--3----------------|-------------------|--3----------------|


                                                          
----------------------------|----------------------------|
----------------------------|----------------------------|
----------------------------|----------------------------|
----------------------------|----------------------------|
--5-5--5---5-5-5-5--5---5-5-|---------------5-5--5---5-5-|
----------------------------|--5-5--5---5-5--------------|


                                                          
----------------------------|----------------------------|
----------------------------|----------------------------|
----------------------------|----------------------------|
----------------------------|----------------------------|
--5-5--5---5-5--------------|--2-2--2---2-2-5-5--5---5-5-|
---------------3-3--3---3-3-|----------------------------|


                                                          
----------------------------|----------------------------|
----------------------------|----------------------------|
----------------------------|----------------------------|
----------------------------|----------------------------|
--5-5--5---5-5-5-5--5---5-5-|---------------5-5--5---5-5-|
----------------------------|--5-5--5---5-5--------------|


                                                                        
----------------------------|--------------|---------------------------|
----------------------------|--------------|---------------------------|
----------------------------|-----------7--|-----5-5-5--5-5-5--5-5--4--|
----------------------------|-----------7--|-----5-5-5--5-5-5--5-5--4--|
--5-5--5---5-5-7-7--7---7-7-|-----------5--|-----3-3-3--3-3-3--3-3--2--|
----------------------------|--5-5--5------|---------------------------|


                                                                               
-------------------|------------------|--------------------|------------------|
-------------------|------------------|--------------------|------------------|
-------------------|------------------|-----------------7--|------------------|
----------------2--|------------------|--5--------------7--|------------------|
----------------2--|------------------|--5--------------5--|------------------|
----------------0--|------------------|--3-----------------|------------------|


                                                                 
--------------------|------------------|------------------------|
--------------------|------------------|------------------------|
--4-----------------|------------------|------------------------|
--4--------------2--|------------------|--5----5--5----5--5--5--|
--2--------------2--|------------------|--5----5--5----5--5--5--|
-----------------0--|------------------|--3----3--3----3--3--3--|


                                                                    
----------------------|------------------------|-------------------|
----------------------|------------------------|-------------------|
----------------------|------------------------|-------------------|
----7--7----7----7----|--5----5--5----5--5--5--|--4----------------|
----7--7----7----7----|--5----5--5----5--5--5--|--4----------------|
----5--5----5----5----|--3----3--3----3--3--3--|--2----------------|


                                                                           
------------------------|------------------------|------------------------|
----------3-------------|----------7-------------|------------------------|
---------------4--4-----|---------------7--7-----|----------6-------------|
-----4---------------4--|-----7---------------7--|---------------7--7-----|
--2---------------------|--5---------------------|-----7---------------7--|
------------------------|------------------------|--5---------------------|


                                                                           
------------------------|------------------------|------------------------|
------------------------|----------3-------------|----------7-------------|
----------4-------------|---------------4--4-----|---------------7--7-----|
---------------5--5-----|-----4---------------4--|-----7---------------7--|
-----5---------------5--|--2---------------------|--5---------------------|
--3---------------------|------------------------|------------------------|


                                                                           
------------------------|------------------------|------------------------|
------------------------|------------------------|----------3-------------|
----------0-------------|----------4-------------|---------------4--4-----|
---------------2--2-----|---------------5--5-----|-----4---------------4--|
-----2---------------2--|-----5---------------5--|--2---------------------|
--0---------------------|--3---------------------|------------------------|


                                                                           
------------------------|------------------------|------------------------|
----------7-------------|------------------------|------------------------|
---------------7--7-----|----------6-------------|----------4-------------|
-----7---------------7--|---------------7--7-----|---------------5--5-----|
--5---------------------|-----7---------------7--|-----5---------------5--|
------------------------|--5---------------------|--3---------------------|


                                                                           
------------------------|------------------------|------------------------|
----------3-------------|----------7-------------|------------------------|
---------------4--4-----|---------------7--7-----|----------0-------------|
-----4---------------4--|-----7---------------7--|---------------2--2-----|
--2---------------------|--5---------------------|-----2---------------2--|
------------------------|------------------------|--0---------------------|


                                                       
---------------------|--------------------------------|
---------------------|--------------------------------|
---------------------|--------------------------------|
----------7----------|--0-0-0-0-10--0-0-9--0-0-7-0-4~-|
-----5---------------|--------------------------------|
--3------------------|--------------------------------|


                                                                
-------------------------------|-------------------------------|
-------------------------------|-------------------------------|
-------------------------------|----------------------------9--|
----0-0-4h5-0-0-4h2-0-0-2h0-4--|----0-0-10-0-9-0-7-0-5-0-4-----|
-------------------------------|-------------------------------|
-------------------------------|-------------------------------|


                                                               
-----------------------------|--------------------------------|
-----------------------------|--------------------------------|
----7-4-5-----------------7--|--------------------------------|
----------0--5-7-5--0-4h5----|--0-0-0-0-10--0-0-9--0-0-7-0-4~-|
-----------------------------|--------------------------------|
-----------------------------|--------------------------------|


                                                                
-------------------------------|-------------------------------|
-------------------------------|-------------------------------|
-------------------------------|----------------------------9--|
----0-0-4h5-0-0-4h2-0-0-2h0-4--|----0-0-10-0-9-0-7-0-5-0-4-----|
-------------------------------|-------------------------------|
-------------------------------|-------------------------------|


                                                                           
----------------------------|----------------------|----------------------|
----------------------------|----------------------|----------------------|
----7-4-5----------------7--|----------------------|----------------10----|
----------0--5-7-5--0-5-----|------5--7------5--7--|------5--7------10----|
----------------------------|------3--5------3--5--|------3--5------8-----|
----------------------------|----------------------|----------------------|


                                                                 
----------------------|---------------------|-------------------|
----------------------|---------------------|-------------------|
----------------------|---------------------|-------------------|
------5--7------5--7--|------5--7------9----|--7----------------|
------3--5------3--5--|------3--5------9----|--7----------------|
----------------------|----------------7----|--5----------------|


                                                             
-------------------|-------------------|--------------------|
-------------------|-------------------|--------------------|
-------------------|-------------------|--------------------|
--8----------------|--5----------------|--10----------------|
--8----------------|--5----------------|--10----------------|
--6----------------|--7----------------|--8-----------------|


                                                             
-------------------|--------------------|-------------------|
-------------------|--------------------|-------------------|
-------------------|--7--------5--------|-------------------|
--7----------------|--7--------5--------|--8----------------|
--7----------------|--5--------3--------|--8----------------|
--9----------------|--------------------|--6----------------|


                                                                   
-------------------|----------------------|-----------------------|
-------------------|----------7---8---10--|--10------8-7-8--------|
--8----------------|----------------------|-----------------------|
--8----------------|----------------------|-----------------------|
--6----------------|----------------------|-----------------------|
-------------------|----------------------|-----------------------|


                                                                           
-----------------------|-------------------------|------------------------|
----------8---10---11--|--11------10-8-10--------|----------10---11---13--|
-----------------------|-------------------------|------------------------|
-----------------------|-------------------------|------------------------|
-----------------------|-------------------------|------------------------|
-----------------------|-------------------------|------------------------|


                                                                     
--------------------------|--------------------|--------------------|
--13----11----10----11----|--15----------------|--16----------------|
--------------------------|--------------------|--------------------|
--------------------------|--------------------|--------------------|
--------------------------|--------------------|--------------------|
--------------------------|--------------------|--------------------|


                                                          
----------------------------|----------------------------|
----------------------------|----------------------------|
--0--0-0-3--5---5--5--0-3-5-|--5-3-----0-3-0-------------|
--0--0-0-3--5---5--5--------|------5-3----------2--3--4--|
----------------------------|----------------------------|
----------------------------|----------------------------|


                                                                            
----------------------------|-------------------------|--------------------|
----------------------------|-------------------------|--------------------|
--0--0-0-3--5---5--5--0-3-5-|--5-3-----0-3-0----------|--8--------7--------|
--0--0-0-3--5---5--5--------|------5-3----------------|--8--------7--------|
----------------------------|-------------------------|--6--------5--------|
----------------------------|-------------------------|--------------------|


                                                                               
--------------------|----------------------------|----------------------------|
--------------------|----------------------------|----------------------------|
--5-----------------|--0--0-0-3--5---5--5--0-3-5-|--5-3-----0-3-0-------------|
--5--------5--------|--0--0-0-3--5---5--5--------|------5-3----------2--3--4--|
--3--------5--------|----------------------------|----------------------------|
-----------3--------|----------------------------|----------------------------|


                                                                               
----------------------------|----------------------------|--------------------|
----------------------------|----------------------------|--------------------|
--0--0-0-3--5---5--5--0-3-5-|--5-3-----0-3-0-------------|--8--------7--------|
--0--0-0-3--5---5--5--------|------5-3----------2--3--4--|--8--------7--------|
----------------------------|----------------------------|--6--------5--------|
----------------------------|----------------------------|--------------------|


                                                                            
--------------------|----------------------------|-------------------------|
--------------------|----------------------------|-------------------------|
--5-----------------|--0--0-0-3--5---5--5--0-3-5-|--5-3-----0-3-0----------|
--5--------5--------|--0--0-0-3--5---5--5--------|------5-3----------------|
--3--------5--------|----------------------------|-------------------------|
-----------3--------|----------------------------|-------------------------|


                                                                 
----------------------6-5------|--------------------------------|
--------6-5---------6-----8-6--|-----------------------9-8-6----|
------7-----7-5---7------------|-------------------5-7-------8--|
--5-8--------------------------|---8-7-5---5-8-5-8--------------|
-------------------------------|---------8----------------------|
Acordes para:

    0 comentários

      mostrar mais comentários

      Conseguiu tocar?

      0tocaram0ainda não

      Grave um vídeo tocando Hunters and Pray e mande pra gente!

      00:00 / 00:00
      outros vídeos desta música
      repetirqualidadeautomática
      Outro vídeos desta música
        00:00 / 00:00
        automática
        OK