Cifra Club

Aprenda

Lullaby For Lucifer

Angra

Cifra: Principal (violão e guitarra)
Tom: C
Intro: Am  Dm9/A  Am  Dm9/A
       Am  Dm9/A  F7M/A  E7(9-)/G#

Primeira Estrofe

Am      Dm9/A   Am     Dm9/A
On the sand,   by the sea
   Am      Dm9/A
I left my heart
     F7M/A   E7(9-)/G#
To shed my grief
   Am      Dm9/A  Am      Dm9/A
A vulture came   begging me
 Am      Dm9/A     F7M/A    E7(9-)/G#
Feed me with this piece of meat

Segunda Estrofe:

F7M/A    E7(9-)/G#   Am  C9
I won't give    away
 F7M/A    E7(9-)/G#
Something I need

Terceira Estrofe:

Am    Dm9/A  Am   Dm9/A
On a garden nursery
   Am     Dm9/A  F7M/A   E7(9-)/G#
I let my fancy  wander free
  Am       Dm9/A   Am       Dm9/A
Children playing around a tree
  Am    Dm9/A   F7M/A  E7(9-)/G#
Sharing apples happi__ly

Quanta Estrofe:

 F7M/A    E7(9-)/G#    Am  C9
Come and rest with me
 F7M/A    E7(9-)/G#
Lay your hands on dreams

Refrão:

Am       Em7(5-)   A7(13-)  Dm7
   I'll wait here by your  side
  Am
'Till you fall asleep
Am       Em7(5-)  A7(13-)  
   I'll wait   until you cry
    A7/C#        C6
All over me the tears
     B7(11)  E4(6-/9-)
You hide  inside

Intro e Primera Parte:

   Am               Dm9/A
E|---------0----------------0---------------|
B|-------2-----1----------3-----3-----------|
G|-----1-----2---2------2-----2---2---------|
D|---2----------------3---------------------|
A|-0----------------0-----------------------|
E|------------------------------------------|

   Am               Dm9/A
E|---------0--------------0-----------------|
B|-------2-----1------------3---------------|
G|-----1-----2---2------2-------------------|
D|---2----------------3---------------------|
A|-0----------------0-----------------------|
E|------------------------------------------|

   Am               Dm9/A
E|---------0----------------0---------------|
B|-------2-----1----------3-----3-----------|
G|-----1-----2---2------2-----2---2---------|
D|---2----------------3---------------------|
A|-0----------------0-----------------------|
E|------------------------------------------|

   F7M/A            E7(9-)/G#
E|---------0--------------0-----------------|
B|-------6-----6------------3---------------|
G|-----5-----5---5------4-------------------|
D|---3----------------3---------------------|
A|-0----------------------------------------|
E|------------------4-----------------------|

Segunda Parte:

   F7M/A            E7(9-)/G#
E|---------0----------------0---------------|
B|-------2-----1----------4-----3-----------|
G|-----1-----2---2------3-----4---4---------|
D|---3----------------3---------------------|
A|------------------------------------------|
E|-1----------------4-----------------------|

   Am               C9
E|------------------------------0-----------|
B|-----1---0---1--------3---3---------------|
G|-----2---2---2--------0---0-----0---------|
D|---2---2---2---2----2---2---2-------------|
A|-0----------------3-----------------------|
E|------------------------------------------|

   F7M/A            E7(9-)/G#
E|---------0--------------0-----------------|
B|-------2-----1------------3---------------|
G|-----1-----2---2------4-------------------|
D|---3----------------3---------------------|
A|------------------------------------------|
E|-1----------------4-----------------------|

Refrão:

   Am               Em7(5-)
E|---------0------------3---3---3-----------|
B|-----2-------1--------3---3---3-----------|
G|---2---1---2---2----3---3---3---3---------|
D|------------------2-----------------------|
A|-0----------------------------------------|
E|------------------------------------------|

   A7(13-)          Dm7
E|---------1------------1---1---1-----------|
B|-----2-------2--------1---1---1-----------|
G|---0---0---0---0----2---2---2---2---------|
D|------------------0-----------------------|
A|-0----------------------------------------|
E|------------------------------------------|

   Am
E|---------0--------------1p0---------------|
B|-----1-------1--------0-------3-----------|
G|---2---2---2---2----1-------1---0---------|
D|------------------------------------------|
A|-0----------------------------------------|
E|------------------0-----------------------|

   Am               Em7(5-)
E|---------0------------3---3---3-----------|
B|-----1-------1--------3---3---3-----------|
G|---2---2---2---2----3---3---3---3---------|
D|------------------2-----------------------|
A|-0----------------------------------------|
E|------------------------------------------|

   A7(13-)          
E|---------1------------1---1---1-----------|
B|-----2-------2--------0---0---0-----------|
G|---0---0---0---0----1---1---1---1---------|
D|------------------0-----------------------|
A|-0----------------------------------------|
E|------------------------------------------|


   A7/C#
E|---------5----------------5---------------|
B|-----5-------5--------5-------5-----------|
G|---0---0---0---0----0---0---0---0---------|
D|------------------------------------------|
A|-4----------------4-----------------------|
E|------------------------------------------|

   C6               B7(11)
E|---------5----------------0---------------|
B|-----5-------5--------4-------4-----------|
G|---0---0---0---0----0---0---0---0---------|
D|------------------------------------------|
A|-3----------------2-----------------------|
E|------------------------------------------|

   E4(6-/9-)
E|-0---0---0--------------------------------|
B|-0---0---0--------------------------------|
G|-2---2---2--------------------------------|
D|-3---3---3--------------------------------|
A|-3---3---3--------------------------------|
E|-0---0---0--------------------------------|
Composição de Kiko Loureiro / Rafael Bittencourt
Colaboração e revisão:
  • Leandro Sandim
  • Douglas Feliphe
  • wendel oliveira
40.210 exibições
    • ½ Tom
    • A
    • Bb
    • B
    • C
    • Db
    • D
    • Eb
    • E
    • F
    • F#
    • G
    • Ab
  • Adicionar à lista

    0 comentários

    Mostrar mais comentários

    Conseguiu tocar?

    11 Tocaram 3 Ainda não

    Grave um vídeo tocando Lullaby For Lucifer e mande pra gente!

    00:00 / 00:00
    outros vídeos desta música
    repetir qualidade Automático
    Outros vídeos desta música
    00:00 / 00:00
    Automático
    Capítulos
    • Tocando a música
    • Dicas iniciais
    • Acordes da Introdução e Primeira Estrofe
    • Tocando Introdução e Primeira Estrofe
    • Ensinando Introdução e Primeira Estrofe
    • Acordes da Segunda Estrofe
    • Tocando Segunda Estrofe
    • Ensinando Segunda Estrofe
    • Acordes Refrão
    • Tocando Refrão
    • Ensinando Refrão
    • Encerramento

    Cifra Club Pro

    Aproveite o Cifra Club com benefícios exclusivos e sem anúncios
    Cifra Club Pro
    Aproveite o Cifra Club com benefícios exclusivos e sem anúncios
    OK