Cifra Club

Rebirth

Angra

Cifra: Principal
exibições 531.206
Tom: C
Intro: Am  D/F#  G  Em  F  G  Am  (2x)
       Dm  Bb/D  C  Am
       Dm  Bb/D  C  G/B

Parte 1

   Am         D/F#   G          Em
E|-------0----------------------------------|
B|-----1---3---------------1-0--------------|
G|---2------------2------0------------------|
D|--------------0------0------------2-------|
A|-0------------------------------2---------|
E|------------2------3----------0-----------|

Parte 2

   F          G      Am
E|---------------------------0--------------|
B|-----------------------1-------1----------|
G|-------2-0------0--------2---2---2--------|
D|-----3--------0------2--------------------|
A|---3---------------0----------------------|
E|-1----------3-----------------------------|

(Repete parte 1 de 2)

Parte 3

   Dm               Bb/D
E|-1-----1-----0----------0-----1-----------|
B|------------------3-----------------------|
G|---2-----2----------3-----3---------------|
D|-----0-----0---0------0-----0---0---------|
A|------------------------------------------|
E|------------------------------------------|

Parte 4

   C                Am
E|-0----------------------------------------|
B|-------3-----1----1-----1-----1-----------|
G|---0-----0----------2-----2---------------|
D|------------------------------------------|
A|-----3-----3---3------0-----0---0---------|
E|------------------------------------------|

Repete - Parte 3

  Dm               Bb/D
E|-1-----1-----0----------0-----1-----------|
B|------------------3-----------------------|
G|---2-----2----------3-----3---------------|
D|-----0-----0---0------0-----0---0---------|
A|------------------------------------------|
E|------------------------------------------|

Parte 5

   C                G/B
E|-0----------------------3-----------------|
B|-------3-----1--------3-------------------|
G|---0-----0----------0---------------------|
D|------------------------------------------|
A|-----3-----3---3--2-----------------------|
E|------------------------------------------|

Primeira Parte:

Am7(9)                        Dm7(9)
       Cooling breeze from a summer day
G9                           C    E7
   Hearing echoes from your heart
Am7(9)                       D9
       Learning how to recompose the words
F7M                 Am9
    Let time just fly

Am7(9)                           Dm7(9)
       Joyfull sea-gulls roaming on the shore
G9                         C    E7
   Not a single note will sound
Am7(9)                         D9
       Raise my head after I dry my face
F7M                 Am9
    Let time just fly

Primeira Parte:

Parte 1

   Am7(9)
E|---------0----------------0---------------|
B|-------8-----8----------8-----8-----------|
G|-----5-----5---5------5-----5---5---------|
D|---9----------------9---------------------|
A|-0----------------0-----------------------|
E|------------------------------------------|

Parte 2

   Dm7(9)
E|---------5----------------5---------------|
B|-------6-----6----------6-----6-----------|
G|-----9-----9---9------9-----9---9---------|
D|---7----------------7---------------------|
A|-5----------------5-----------------------|
E|------------------------------------------|

Parte 3

   G9
E|---------3----------------3---------------|
B|-------0-----0----------0-----0-----------|
G|-----2-----2---2------2-----2---2---------|
D|---0----------------0---------------------|
A|------------------------------------------|
E|-3----------------3-----------------------|

Parte 4

   C                E7
E|---------3----------------0---------------|
B|-------1-----1----------3-----3-----------|
G|-----0-----0---0------1-----1---1---------|
D|---2----------------0---------------------|
A|-3----------------------------------------|
E|------------------0-----------------------|

Parte 1

   Am7(9)
E|---------0----------------0---------------|
B|-------8-----8----------8-----8-----------|
G|-----5-----5---5------5-----5---5---------|
D|---9----------------9---------------------|
A|-0----------------0-----------------------|
E|------------------------------------------|

Parte 5   

   D9
E|---------0----------------0---------------|
B|-------7-----7----------7-----7-----------|
G|-----7-----7---7------7-----7---7---------|
D|---7----------------7---------------------|
A|-5----------------5-----------------------|
E|------------------------------------------|

Parte 6

   F7M
E|---------0----------------0---------------|
B|-------6-----6----------6-----6-----------|
G|-----5-----5---5------5-----5---5---------|
D|---7----------------7---------------------|
A|-8----------------8-----------------------|
E|------------------------------------------|

Parte 7

   Am9
E|---------0----------------0---------------|
B|-------0-----0----------0-----------------|
G|-----5-----5---5------5-------------------|
D|---7----------------7---------------------|
A|-0----------------0-----------------------|
E|------------------------------------------|

Segunda Parte:

Am       G/A   Bm5-/A  Am
   Recalling, retrea__ting
      G/A  E        Am
Returning,   retreaving
         G/A  Bm5-/A  Am
A small talk your missing
         G/A  E        Am  F  G
More clever     but older now

(Primeira Estrofe)

Parte 1
   Am          G/A  Bm5-/A      Am
E|------------------------------------------|
B|-----5---5---3--------6---6---5-----------|
G|-----5---5---4--------7---7---5-----------|
D|---7---7---7---5----9---9---9---7---------|
A|-0----------------0-----------------------|
E|------------------------------------------|

Parte 2
   Am          G/A  E           Am
E|------------------------------------------|
B|-----5---5---3--------0---0---1-----------|
G|-----5---5---4--------1---1---2-----------|
D|---7---7---7---5----2---2---2---2---------|
A|-0----------------------------------------|
E|------------------0-----------------------|

(Repete Parte 1 de 2)

Parte 3
   F               G
E|-1--1-1-1-1-1-1---------------------------|
B|-1--1-1-1-1-1-1--3------------------------|
G|-2--2-2-2-2-2-2--0------------------------|
D|-3--3-3-3-3-3-3--0------------------------|
A|-3--3-3-3-3-3-3---------------------------|
E|-1--1-1-1-1-1-1--3------------------------|
   ↓  ↓ ↓ ↑ ↑ ↑ ↓  ↑

Am       G/A  Bm5-/A   Am
   A leader,  a lear__ner
C/G       G  E       Am
    A lawful   beginner
      G/A  A7
A lodger      of lunacy
Dm          G
   So lucid   in the jungle
C          E
  A helper,  a sinner
F               G           Am
  A scarecrow's agonyzing smile

(Segunda Estrofe)

Parte 1
   Am          G/A  Bm5-/A      Am
E|------------------------------------------|
B|-----5---5---3--------6---6---5-----------|
G|-----5---5---4--------7---7---5-----------|
D|---7---7---7---5----9---9---9---7---------|
A|-0----------------0-----------------------|
E|------------------------------------------|

Parte 2
   C/G         G    E           Am
E|------------------------------------------|
B|-----5---5---3--------0---0---1-----------|
G|-----5---5---4--------1---1---2-----------|
D|---5---5---5---5----2---2---2---2---------|
A|------------------------------------------|
E|-3----------------0-----------------------|

Parte 3
   Am          G/A  A7
E|------------------------------------------|
B|-----5---5---3--------8---8---6-----------|
G|-----5---5---4--------6---6---6-----------|
D|---7---7---7---5----5---5---5---5---------|
A|-0----------------------------------------|
E|------------------5-----------------------|

Parte 4
   Dm               G
E|-----5---5--------------------------------|
B|-----6---6---8--------3---5---6-----------|
G|---7---7---7---5------4---4---4-----------|
D|--------------------5---5---5---5---------|
A|-5----------------------------------------|
E|------------------3-----------------------|

Parte 5   
   C                E
E|----------------------0---0---------------|
B|-----5---5---5--------0---0---3-----------|
G|-----5---5---5------1---1---1---1---------|
D|---5---5---5---5--------------------------|
A|-3----------------------------------------|
E|------------------0-----------------------|

Parte 6 
   F                G
E|------------------------------------------|
B|-----1---1---1--------3---3---3-----------|
G|-----2---2---2--------0---0---0-----------|
D|---3---3---3---3----0---0---0---0---------|
A|------------------------------------------|
E|-1----------------3-----------------------|

Parte 7
   Am
E|------------------------------------------|
B|-----1---1---1--------1---1---1-----------|
G|-----2---2---2--------2---2---2-----------|
D|---2---2---2---2----2---2---2---2---------|
A|-0----------------0-----------------------|
E|------------------------------------------|

Terceira Parte:

F               F#m
Oh, minutes go round and round
           C#
Inside my head
D                  D#
Oh, my chest will now explode
        B
Falling into pieces
 E                   A
Rain breaks on the ground

Terceira Parte:

Parte 1
   F
E|---------1----------------1---------------|
B|-----1---1---1--------1---1---1-----------|
G|-----2-------2--------2-------2-----------|
D|---3---3---3---3----3---3---3---3---------|
A|------------------------------------------|
E|-1----------------1-----------------------|

Parte 2
   F#
E|---------2----------------2---------------|
B|-----2---2---2--------2---2---2-----------|
G|-----2-------2--------2-------2-----------|
D|---4---4---4---4----4---4---4---4---------|
A|------------------------------------------|
E|-2----------------2-----------------------|

Parte 3
   C#
E|---------1----------------1---------------|
B|-----2---2---2--------2---2---2-----------|
G|-----1-------1--------1-------1-----------|
D|---3---3---3---3----3---3---3---3---------|
A|-4----------------4-----------------------|
E|------------------------------------------|

Parte 4
   D
E|---------2----------------2---------------|
B|-----3---3---3--------3---3---3-----------|
G|-----2-------2--------2-------2-----------|
D|---4---4---4---4----4---4---4---4---------|
A|-5----------------5-----------------------|
E|------------------------------------------|

Parte 5
   D#
E|---------3----------------3---------------|
B|-----4---4---4--------4---4---4-----------|
G|-----3-------3--------3-------3-----------|
D|---5---5---5---5----5---5---5---5---------|
A|-6----------------6-----------------------|
E|------------------------------------------|

Parte 6
   B
E|---------2----------------2---------------|
B|-----4---4---4--------4---4---4-----------|
G|-----4-------4--------4-------4-----------|
D|---4---4---4---4----4---4---4---4---------|
A|-2----------------2-----------------------|
E|------------------------------------------|

Parte 7
   E
E|---------0----------------0---------------|
B|-----0---0---0--------0---0---0-----------|
G|-----1-------1--------1-------1-----------|
D|---2---2---2---2----2---2---2---2---------|
A|------------------------------------------|
E|-0----------------0-----------------------|

Parte 8
   A
E|---------0----------------0---------------|
B|-----2---2---2--------2---2---2-----------|
G|-----2-------2--------2-------2-----------|
D|---2---2---2---2----2---2---2---2---------|
A|-0----------------0-----------------------|
E|------------------------------------------|

Quarte Parte:

  C#m  
Blood
C#m                    
    One minute forever
C#m                    
    A sinner regreting
Am                  G    F  G  Am  G
   My vulgar misery ends

Quarta Parte:

Parte 1
   C#m
E|------------------------------------------|
B|-----5---4---5--------5---4---5-----------|
G|-----6---4---6--------6---4---6-----------|
D|---6---6---4---6----6---6---4---6---------|
A|-4----------------4-----------------------|
E|------------------------------------------|

Parte 2
   Eº
E|----0-0-0-0-0-0-0-------------------------|
B|----8-8-8-8-8-8-8-------------------------|
G|----6-6-6-6-6-6-6-------------------------|
D|----8-8-8-8-8-8-8-------------------------|
A|----7-7-7-7-7-7-7-------------------------|
E|-0--0-0-0-0-0-0-0-------------------------|
   ↓  ↓ ↓ ↑ ↑ ↑ ↓ ↓ 

Parte 1
   C#m
E|------------------------------------------|
B|-----5---4---5--------5---4---5-----------|
G|-----6---4---6--------6---4---6-----------|
D|---6---6---4---6----6---6---4---6---------|
A|-4----------------4-----------------------|
E|------------------------------------------|

Parte 2
   Eº
E|----0-0-0-0-0-0-0-------------------------|
B|----8-8-8-8-8-8-8-------------------------|
G|----6-6-6-6-6-6-6-------------------------|
D|----8-8-8-8-8-8-8-------------------------|
A|----7-7-7-7-7-7-7-------------------------|
E|-0--0-0-0-0-0-0-0-------------------------|
   ↓  ↓ ↓ ↑ ↑ ↑ ↓ ↓ 

Parte 1
   C#m
E|------------------------------------------|
B|-----5---4---5--------5---4---5-----------|
G|-----6---4---6--------6---4---6-----------|
D|---6---6---4---6----6---6---4---6---------|
A|-4----------------4-----------------------|
E|------------------------------------------|

Parte 2
   Eº
E|----0-0-0-0-0-0-0-------------------------|
B|----8-8-8-8-8-8-8-------------------------|
G|----6-6-6-6-6-6-6-------------------------|
D|----8-8-8-8-8-8-8-------------------------|
A|----7-7-7-7-7-7-7-------------------------|
E|-0--0-0-0-0-0-0-0-------------------------|
   ↓  ↓ ↓ ↑ ↑ ↑ ↓ ↓ 

Parte 3
   Am
E|------------------------------------------|
B|-----1---0---1--------1---0---1-----------|
G|-----2---2---2--------2---2---2-----------|
D|---2---2---2---2----2---2---2---2---------|
A|-0----------------0-----------------------|
E|------------------------------------------|

Refrão:

 F                    Am
Ride the winds of a brand new day
 F                      Am
High where mountain's stand
 F                  Dm
Found my hope and pride again
   C          E
Rebirth of a man

(repete intro)

Refrão Final:

       F             G      Am          G
And I ride the winds of a brand new day
 F              G       Am  G
High where mountain's stand
 F            F/E   Dm
Found my hope and pride again
   C          E
Rebirth of a man

Final:

 F    G   A
Time to fly

Final:

Parte 1
   Am         D/F#   G          Em
E|-------0----------------------------------|
B|-----1---3---------------1-0--------------|
G|---2------------2------0------------------|
D|--------------0------0------------2-------|
A|-0------------------------------2---------|
E|------------2------3----------0-----------|

Parte 2
   F        G
E|----------------------------------------5-|
B|----------------3--------2h3p2-------5--5-|
G|-------2------0--------2-------3-3/4----6-|
D|-----3------0--------2--------------------|
A|---3---------------0--------------------0-|
E|-1--------3-------------------------------|

0 comentários

    mostrar mais comentários

    Conseguiu tocar?

    39tocaram0ainda não

    Grave um vídeo tocando Rebirth e mande pra gente!

    00:00 / 00:00
    outros vídeos desta música
    repetirqualidadeautomática
    Outro vídeos desta música
      00:00 / 00:00
      automática
      Capítulos
      • Tocando a música
      • Dicas iniciais
      • Acordes Introdução
      • Tocando Introdução
      • Introdução - Parte 1 de 5
      • Introdução - Parte 2 de 5
      • Introdução - Parte 3 de 5
      • Introdução - Parte 4 de 5
      • Introdução - Parte 5 de 5
      • Acordes Primeira Parte
      • Tocando Primeira Parte
      • Primeira Parte - Parte 1 de 7
      • Primeira Parte - Parte 2 de 7
      • Primeira Parte - Parte 3 de 7
      • Primeira Parte - Parte 4 de 7
      • Primeira Parte - Parte 5 de 7
      • Primeira Parte - Parte 6 de 7
      • Primeira Parte - Parte 7 de 7
      • Acordes Segunda Parte (Primeira Estrofe)
      • Tocando Segunda Parte (Primeira Estrofe)
      • Segunda Parte (Primeira Estrofe) - 1 de 3
      • Segunda Parte (Primeira Estrofe) - 2 de 3
      • Segunda Parte (Primeira Estrofe) - 3 de 3
      • Acordes Segunda Parte (Segunda Estrofe)
      • Tocando Segunda Parte ( Segunda Estrofe)
      • Segunda Parte ( Segunda Estrofe) - 1 de 7
      • Segunda Parte ( Segunda Estrofe) - 2 de 7
      • Segunda Parte ( Segunda Estrofe) - 3 de 7
      • Segunda Parte ( Segunda Estrofe) - 4 de 7
      • Segunda Parte ( Segunda Estrofe) - 5 de 7
      • Segunda Parte ( Segunda Estrofe) - 6 de 7
      • Segunda Parte ( Segunda Estrofe) - 7 de 7
      • Acordes Terceira Parte
      • Tocando Terceira Parte
      • Terceira Parte - Parte 1 de 8
      • Terceira Parte - Parte 2 de 8
      • Terceira Parte - Parte 3 de 8
      • Terceira Parte - Parte 4 de 8
      • Terceira Parte - Parte 5 de 8
      • Terceira Parte - Parte 6 de 8
      • Terceira Parte - Parte 7 de 8
      • Terceira Parte - Parte 8 de 8
      • Acordes Quarta Parte
      • Tocando Quarta Parte
      • Quarta Parte - Parte 1 de 3
      • Quarta Parte - Parte 2 de 3
      • Quarta Parte - Parte 3 de 3
      • Ritmo Quarta Parte
      • Acordes Refrão
      • Tocando Refrão
      • Ritmo Refrão
      • Dicas Finais
      • Tocando Refrão
      • Tocando Dedilhado Final
      • Final - Parte 1 de 2
      • Final - Parte 2 de 2
      • Encerramento
      OK