Cifra Club

Essa Mina é Louca

Anitta

Cifra: Principal (violão e guitarra)
Tom: C#
[Intro]

E|---------6-6-6-6-6---4------|---------------------------|
B|-6-6-6-6-----------------6--|-6-6-6-6-7-7-7-7-7---6---6-|
G|----------------------------|---------------------------|
D|----------------------------|---------------------------|
A|----------------------------|---------------------------|
E|----------------------------|---------------------------|

E|----------------------------|---------------------------|
B|---------6-6-6-6-6---4------|---------4-4-4-4-4---------|
G|-6-6-6-6-----------------6--|-6-6-6-6-------------6---5-|
D|----------------------------|---------------------------|
A|----------------------------|---------------------------|
E|----------------------------|---------------------------|

             Bbm7
Essa mina é louca 
                                    Abm7/9+
Quando eu tô bolado ela quer beijo na boca 
                              Gb7M
Se eu tô com frio ela tira a minha roupa 
 Cm7(b5)            F7
Louca, essa mina é louca 

              Bbm7
A gente sabe viver 
           Abm7/9+
Conviver, dando prazer 
           Gb7M
Anoitecer, amanhecer 
   Cm7(b5)       F7
Eu e você, eu e você 

            Bbm7
E eu gosto dela 
                              Abm7/9+
Ela é encantada, ela é minha Cinderela 
                          Gb7M
Becos e vielas fazem sua passarela 
                              Cm7(b5)
Vagabundo pira com a mina na favela 
  F7
É ela 

               Bbm7
Que te ensina certin 
                 Abm7/9+
Faço tudin, bem devagarin 
                            Gb7M
Pede gostosin, vem cá meu pretin 
 Cm7(b5)                   F7
Desse jeito você me deixa louquin 

             Bbm7
Essa mina é louca 
                                       Abm7/9+
Quando eu tô bolado ela quer beijo na boca 
                              Gb7M
Se eu tô com frio ela tira a minha roupa 
 Cm7(b5)            F7
Louca, essa mina é louca 

             Bbm7
É que eu fui eleita a louca perfeita 
           Abm7/9+
Que tem a receita que se é feita com confeito 
                Gb7M
Que é feito com o coração 

Tem tudo o que almeja, não importa o que seja 
    Cm7(b5)
Na batalha, ela conquista 
        F7
Nada é dado de bandeja 

               Bbm7
Ela curte uma bebedeira 

E música sertaneja 
                   Abm7/9+                 Gb7M
Quando dança e me beija, sinto que ela me deseja mais e mais 
             Cm7(b5)
Mesmo louca desse jeito, é muito mais do que mereço 
             F7
Minha vida é ela quem faz 

              Bbm7
A gente sabe viver 
                  Abm7/9+
Conviver, dando prazer 
           Gb7M
Anoitecer, amanhecer 
   Cm7(b5)       F7
Eu e você, eu e você 

              Bbm7
A gente sabe viver 
                  Abm7/9+
Conviver, dando prazer 
           Gb7M
Anoitecer, amanhecer 
   Cm7(b5)       F7
Eu e você, eu e você 

             Bbm7
Essa mina é louca 
                                    Abm7/9+
Quando eu tô bolado ela quer beijo na boca 
                              Gb7M
Se eu tô com frio ela tira a minha roupa 
 Cm7(b5)            F7
Louca, essa mina é louca
exibições 111.822
Acordes para:

    0 comentários

    mostrar mais comentários

    Conseguiu tocar?

    9 tocaram 2 ainda não

    Grave um vídeo tocando Essa Mina é Louca e mande pra gente!

    00:00 / 00:00
    outros vídeos desta música
    repetir qualidade Automático
    Outros vídeos desta música
    00:00 / 00:00
    Automático
    OK