Cifra Club

Aprenda

Zen

Anitta

Tab de baixo: Principal
Opcional

Quando ela começar com Ooh ooh ooh ooh, é legal acompanhar ela..

G|--------------------------------------------|
D|--------------------------------------------|
A|12/15---12/15/17--12/15/17/19--12/19/17-----|
E|--------------------------------------------|


Agora entra o baixo com um slide.. 

G|--------------------------------------------|
D|--------------------------------------------|
A|12-12/3-------------------------------------|
E|--------------------------------------------|

Riff 1

Olha, cê me faz tão bem

G|--------------------------------------------------------|
D|--------------------------------------------------------|(4x)
A|33--3-33--3-55--5-55--5-77--7-77--7-55--5-55--5---------|
E|---3-----3-----5-----5-----7-----7-----5-----5----------|

Riff 2

Então tenta não me provocar

G|--------------------------------------------------------|
D|--------------------------------------------------------| (2x)
A|------77-77-55-55-33-33---------------------------------|
E|77-77---------------------------------------------------|

Riff 3 
Slide antes de voltar pro Riff 1

G|--------------------------------------------------------|
D|--------------------------------------------------------| 
A|3/12/3--------------------------------------------------|
E|--------------------------------------------------------|


Riff 1 (4x)

Riff 2 (2x)


Riff 4
Tocada apos a repetição do Riff 2

G|--------------------------------------------------------|
D|--------------------------------------------------------| Deixe soar as notas 
A|3----5----7-----5------99-12/3--------------------------|
E|--------------------------------------------------------|

Riff 1 (1x)

Riff Opcional 

É isso ai pessoal, minha 1 tab, treinem, se divirtam, improvisem. VLW
Composição de Anitta / Jefferson Junior / Umberto Tavares
Colaboração e revisão:
  • Julio Cesar
1.920 exibições

0 comentários

Ver todos os comentários

Conseguiu tocar?

0 Tocaram 0 Ainda não

Grave um vídeo tocando Zen e nos envie!

00:00 / 00:00
outros vídeos desta música
repetir qualidade Automático
Outros vídeos desta música
00:00 / 00:00
Automático

Cifra Club Pro

Aproveite o Cifra Club com benefícios exclusivos e sem anúncios
Cifra Club Pro
Aproveite o Cifra Club com benefícios exclusivos e sem anúncios
OK