Cifra Club

Aprenda

Caught In A Mosh Solo

Anthrax

Cifra: Principal (violão e guitarra)
tom: G
|---|------|---|------|-------h--p-----|-------|
|---|--14--|---|--14--|-----13-16-13---|--12---|
|---|------|---|------|----------------|-------|
|---|------|---|------|----------------|-------|
|---|------|---|------|----------------|-------|
|---|------|---|------|----------------|-------|

|--------------|--------------|-------------|-------------|
|--------------|--------------|-------------|-------------|
|--------------|--------------|-------------|-------------|
|--9----9------|-9-10----9-10-|-12----10-12-|-14----12-14-|
|----------12--|--------------|-------------|-------------|
|--------------|--------------|-------------|-------------|

|----------------h--p----------|
|----------12--12-13-12----12--|
|----13-14--------------14-----|
|-15---------------------------|
|------------------------------|
|------------------------------|

|----------------------|----b--r--------------|
|---------12-13-15--13-|--15-16-15--\/\/\/\/--|
|--13--14--------------|----------------------|
|----------------------|----------------------|
|----------------------|----------------------|
|----------------------|----------------------|

|----h--p---------------|----h--p-----------------|
|--13-15-12-13-12----12-|--10-12-9-10-9-----------|
|-----------------14----|---------------10-9----9-|
|-----------------------|--------------------12---|
|-----------------------|-------------------------|
|-----------------------|-------------------------|

|-----------------------|-----------------------|
|-----------------------|---h--p----------------|
|--9--/\/\/\/\/\/\/\/---|--7--9--7-----7--------|
|-----------------------|-----------9-----9--7--|
|-----------------------|-----------------------|
|-----------------------|-----------------------|

|---------------------|-------------------------|
|---------------------|-------------------------|
|---------------------|-------------------------|
|---h--p--------------|--h-p--------------------|
|--8-11-8--7--8--7----|-5-7-5\3--3--2-----------|
|------------------10-|----------------5--4--1--|

|---------------|
|---------------|
|---------------|
|---------------|
|---------------|-
|--0------------|
 whammy bar dive

|----b----|-12-13-12-----12--------------|
|--15--17-|-----------15----13-15-12-13--|
|---------|------------------------------|
|---------|------------------------------|
|---------|------------------------------|
|---------|------------------------------|

|---b--r----|------p---------------------|
|-15-17-15--|-12-13-12---12-13-12--------|
|-----------|----------14---------14-13--|
|-----------|----------------------------|
|-----------|----------------------------|
|-----------|----------------------------|

|------------|-------------------|
|------------|--------12---------|
|--14-/\/\/--|--13-14----14-13---|
|------------|-------------------|
|------------|-------------------|
|------------|-------------------|

|----------------------------------------|
|-------------------13-15-16-15-13-12----|
|----------13-14-15-------------------13-|
|-12-14-15-------------------------------|
|----------------------------------------|
|----------------------------------------|

|------------12-13-12---12--|
|---12-13-15----------------|
|-14------------------------|
|---------------------------|
|---------------------------|
|---------------------------|

|----b----|-12-13-12-----12--------------|
|--15--17-|-----------15----13-15-12-13--|
|---------|------------------------------|
|---------|------------------------------|
|---------|------------------------------|
|---------|------------------------------|

|---b--r----|------p---------------------|
|-15-17-15--|-12-13-12---12-13-12--------|
|-----------|----------14---------14-13--|
|-----------|----------------------------|
|-----------|----------------------------|
|-----------|----------------------------|

|------------|-------------------|
|------------|--------12---------|
|--14-/\/\/--|--13-14----14-13---|
|------------|-------------------|
|------------|-------------------|
|------------|-------------------|

|----------------------------------------|
|-------------------13-15-16-15-13-12----|
|----------13-14-15-------------------13-|
|-12-14-15-------------------------------|
|----------------------------------------|
|----------------------------------------|

|-------------12-13-----------12-13--|
|----12-13-15---------12-13-15-------|
|--14---------------14---------------|
|------------------------------------|
|------------------------------------|
|------------------------------------|

|--22b24---/\/\/\/\/\/--|--/\/\/\/\/\/\/\--|
|-----------------------|------------------|
|-----------------------|------------------|
|-----------------------|------------------|
|-----------------------|------------------|
|-----------------------|------------------|

Composição de Edward Heyman / Freddie Mercury / Jacques Prévert / Johnny Mercer / Joseph Kosma
1.736 exibições
    • ½ Tom
    • A
    • Bb
    • B
    • C
    • Db
    • D
    • Eb
    • E
    • F
    • F#
    • G
    • Ab
  • Adicionar à lista

    0 comentários

    Ver todos os comentários

    Conseguiu tocar?

    0 Tocaram 0 Ainda não

    Grave um vídeo tocando Caught In A Mosh Solo e nos envie!

    00:00 / 00:00
    Outros vídeos desta música
    Repetir Qualidade Automático
    Outros vídeos desta música
    00:00 / 00:00
    Automático

    Cifra Club Pro

    Aproveite o Cifra Club com benefícios exclusivos e sem anúncios
    Cifra Club Pro
    Aproveite o Cifra Club com benefícios exclusivos e sem anúncios
    OK