Cifra Club

Epitaph

Antimatter

Cifra: Principal (violão e guitarra)
tom: A (forma dos acordes no tom de G) Capotraste na 2ª casa
     Bm
||--------------2-------------|--------------0-----------|
||-----------3-------------3--|-----------3-----3-----3--|
||--------4--------(4)--4-----|--------4-----------------|
||-----4----------------------|-----4--------------4-----|
||--2-------------------------|--0-----------------------|
||----------------------------|--------------------------|


|--------------0-------------|--------------0-----------|
|-----------3-----3-------3--|-----------3-----3-----3--|
|--------4-------------------|--------4-----------------|
|-----4--------------(4)-----|-----4--------------4-----|
|----------------------------|--------------------------|
|--3-------------------------|--3-----------------------|

|--------------2-----------|--------------0-----------|
|-----------3-----3-----3--|-----------3-----3-----3--|
|--------4-----------4-----|--------4-----------------|
|-----4--------------------|-----4--------------4-----|
|--2-----------------------|--0-----------------------|
|--------------------------|--------------------------|

                                                             Am
|--------------0-------------|--------------0----------| |-----------0--|
|-----------3-----3-------3--|-----------3----------0--| |--------0-----|
|--------4-------------------|--------4----------------|2|--------------|
|-----4--------------(4)-----|-----4-------------4-----|/|-----2--------|
|----------------------------|-------------------------|4|--0-----------|
|--3-------------------------|--3----------------------| |--------------|

      Em
| |-------------0----------|--------------0---------||
| |---------------------0--|-----------0------------||
|4|--------0---------------|--------0---------------||
|/|-----2------------2-----|------------------------||
|4|------------------------|----2--------------0----||
| |--0---------------------|--0---------------------||



================================================================================
Part 2:
================================================================================

     Bm
||--------------0---------|--------------0-----------|
||-----------0-----0------|-(0)-------0-----------0--|
||--------0---------------|--------0--------0--------|
||-----4------------------|-----4--------------4-----|
||--2---------------------|--------------------------|
||------------------------|--------------------------|


|--------------0-----------|--------------0-----------|
|-----------0-----0-----0--|-----------0-----0-----0--|
|--------0-----------0-----|--------0-----------------|
|-----4--------------------|-----4--------------4-----|
|--2-----------------------|--2-----------------------|
|--------------------------|--------------------------|

|--------------------------|--------------------------|
|--------------0--------0--|--------------0--------0--|
|-----------0-----0--------|-----------0-----0--------|
|--------4-----------4-----|--------4-----------4-----|
|-----2--------------------|-----2--------------------|
|--0-----------------------|--0-----------------------|

|--------------0-----------|--------------0--------0--||
|-----------------------0--|--------------------------||
|-----------0-----0--------|-----------0-----0--------||
|--------4-----------4-----|--------4-----------4-----||
|-----2--------------------|-----2--------------------||
|--0-----------------------|--0-----------------------||



================================================================================
Part 3:
================================================================================

    G                                                     Am
||-------------------------|--------------------------|--------------0-------0-|
||-------------0--------0--|--------------0--------0--|-----------0------------|
||----------0-----0--------|-----------0-----0--------|--------2---------------|
||-------0-----------0-----|--------0-----------0-----|-----2-------------2----|
||----2--------------------|-----2--------------------|--0---------------------|
||-3-----------------------|--3-----------------------|------------------------|

                               Em
|--------------0--------0--|------------0----------|--------0--------0-------|
|-----------0--------------|-----------------------|-----0-----0--------0----|
|--------2--------2--------|-------0---------------|--0----------------------|
|-----2--------------2-----|-----------------2--2--|--------------2----------|
|--0-----------------------|-----------------------|-------------------------|
|--------------------------|--0--------------------|-------------------------|

                              |____3____|
|--------------0-----------|------------0-------------||
|-----------------------0--|-------0------------------||
|--------0--------0--------|--------------------------||
|-----2--------------------|--------------------------||
|--------------------------|--------------------------||
|--0-----------------0-----|--0-----------------------||



================================================================================
Play Part 1 once (variations outlined below)
================================================================================

     Bm
||--------------2-----------|--------------0-----------|
||-----------3-----------3--|-----------3-----3-----3--|
||--------4--------4--------|--------4-----------------|
||-----4--------------4-----|-----4--------------4-----|
||--2-----------------------|--0-----------------------|
||--------------------------|--------------------------|


|--------------0-----------|--------------0-----------|
|-----------3-----3-----3--|-----------3-----3-----3--|
|--------4-----------------|--------4-----------------|
|-----4--------------4-----|-----4--------------4-----|
|--------------------------|--------------------------|
|--3-----------------------|--3-----------------------|

|--------------2-----------|--------------0-----------|
|-----------3-----3-----3--|-----------3-----3-----3--|
|--------4-----------------|--------4-----------------|
|-----4--------------4-----|-----4--------------4-----|
|--2-----------------------|--0-----------------------|
|--------------------------|--------------------------|

                                                              Am
|--------------0-------------|--------------0-----------| |-----------0--|
|-----------3-----3-------3--|-----------3-----0-----0--| |--------0-----|
|--------4-------------------|--------4-----------------|2|--------------|
|-----4--------------(4)-----|-----4--------------------|/|-----2--------|
|----------------------------|--------------------0-----|4|--0-----------|
|--3-------------------------|--3-----------------------| |--------------|


| |-------------0----------|--------------0--------||
| |---------------------0--|-----------------------||
|4|--------0---------------|-----------0-----------||
|/|-----2------------2-----|--------2---------2----||
|4|------------------------|-----2-----------------||
| |--0---------------------|--0--------------------||



================================================================================
Play Part 2 once (variations outlined below)
================================================================================

     Bm
||--------------0-----------|--------------0-----------|
||-----------0-----------0--|-----------0-----------0--|
||--------0-----------------|--------0-----------------|
||-----4--------------4-----|-----4--------------4-----|
||--2-----------------------|--2-----------------------|
||--------------------------|--------------------------|


|--------------0-----------|--------------0-----------|
|-----------0-----0-----0--|-----------0-----0-----0--|
|--------0-----------------|--------0-----------------|
|-----4--------------4-----|-----4--------------4-----|
|--2-----------------------|--2-----------------------|
|--------------------------|--------------------------|

|--------------------------|--------------0-----------|
|--------------0--------0--|-----------------------0--|
|-----------0-----0--------|-----------0-----0--------|
|--------4-----------4-----|--------4-----------4-----|
|-----2--------------------|-----2--------------------|
|--0-----------------------|--0-----------------------|

|--------------0-----------|--------------------------||
|-----------------------0--|--------------0--------0--||
|-----------0--------------|-----------0-----0--------||
|--------4-----------4-----|--------4-----------4-----||
|-----2--------------------|-----2--------------------||
|--0-----------------------|--0-----------------------||



================================================================================
Part 4:
================================================================================

    G                                                     Am
||-------------0-----------|--------------0--------0--|--------------0---------|
||----------------0-----0--|-----------------0--------|-----------0------------|
||----------0--------------|-----------0--------------|--------2------------2--|
||-------0-----------0-----|--------0-----------0-----|-----2------------------|
||----2--------------------|-----2--------------------|--0---------------------|
||-3-----------------------|--3-----------------------|------------------------|


                       [Rake chord]  Bm
|------------0---------0---------|-------------0-----------|
|------------0-----------0-------|----------------0-----0--|
|-(2)-----2----------------0-----|----------0--------------|
|----------------------------4---|-------4-----------4-----|
|------------------------------2-|-------------------------|
|--------------------------------|--0----------------------|

                               G                 Bm
|-----------------0--------|-----------0-------------|-------------------|
|-----------0--------------|-------------------------|-------------------|
|--------0-----------0-----|--------0-----0-----0----|--(0)--------------|
|-----4--------4-----------|-----0--------------4----|--(4)--------------|
|--------------------------|-----------------2--2----|--(2)--------------|
|--0--------------------0--|--3----------------------|-------------------|

                          C                       Em
|---------------------|-----------0-----------|---------------------|
|---------------------|-----------1-----------|------------0--------|
|--(0)-------------0--|--------0--------------|---------------------|
|--(4)----------------|-----2-----------------|-------2-------------|
|--(2)----------0-----|--3---------------2----|---------------------|
|---------------------|-----------------------|--0------------------|

                           G                 Bm
|----------------------|--------------0----------|-------------------|
|----------------------|-----------------0-------|-------------------|
|-----------0--------0-|-----------0-------------|-------------------|
|----------------0-----|--------0----------------|-------------------|
|----------------0-----|-----2--------------2----|--(2)--------------|
|--0-------------------|--3----------------------|-------------------|

                            C                          Em
|-----------------------|--------------0-----------|-----------------------|
|------------0----------|-----------1--1-----------|------------0-------0--|
|--------------------0--|--------0-----------------|-----------------------|
|---------4-------0-----|-----2--------------------|-------2---------2-----|
|-(2)-------------0-----|--3-----------------------|-----------------------|
|-----------------------|--------------------------|--0--------------------|

|-------------------------|-----------------------|-------------------------||
|--------------0-------0--|------------0-------0--|--------------0----------||
|-----------0-------0-----|-----------------------|-----------0----------0--||
|--------2----------------|-------2---------2-----|-------------------0-----||
|-----2-------------------|-----------------------|-----2-------------------||
|--0----------------------|--0--------------------|--0----------------------||



================================================================================
Part 5:
================================================================================

     C
||--------------0--------0--|--------------0--------0--|
||-----------1--------------|-----------1--1-----------|
||--------0--------0--------|--------0--------0--------|
||-----2--------------2-----|-----2--------------2-----|
||--3-----------------------|--3-----------------------|
||--------------------------|--------------------------|


|--------------0--------0--|--------------0--------0--|
|-----------1--1-----------|-----------1--------------|
|--------0--------0--------|--------0--------0--------|
|-----2--------------2-----|-----2--------------2-----|
|--3-----------------------|--3-----------------------|
|--------------------------|--------------------------|

    Em
|--------------0--------0--|--------------0--------0--|
|-----------0--------------|-----------0--------------|
|--------0-----------------|--------0-----------------|
|-----2--------------2-----|-----2--------------2-----|
|--------------------------|--------------------------|
|--0-----------------------|--0-----------------------|

|--------------0--------0--|--------------0----------0--|
|-----------0--------------|-----------0----------------|
|--------0-----------------|--------0--------0----------|
|-----2--------------2-----|-----2---------------2------|
|--------------------------|--------------------(0)-----|
|--0-----------------------|--0-------------------------|

    C
|--------------0--------0--|--------------0--------0--|
|-----------1--1-----------|-----------1--1-----------|
|--------0--------0--------|--------0--------0--------|
|-----2--------------2-----|-----2--------------2-----|
|--3-----------------------|--3-----------------------|
|--------------------------|--------------------------|

|--------------0--------0--|--------------0--------0--|
|-----------1--1-----------|-----------1--1-----------|
|--------0--------0--------|--------0--------0--------|
|-----2--------------2-----|-----2--------------2-----|
|--3-----------------------|--3-----------------------|
|--------------------------|--------------------------|

    Em
|--------------0--------0--|--------------0--------0-|-------------0-------0--||
|-----------0--------------|-----------0-------------|----------0-----0-------||
|--------0-----------------|--------0----------------|-------0-----------0----||
|-----2--------------2-----|-----2--------------2----|----2-------------------||
|--------------------------|-------------------------|------------------------||
|--0-----------------------|--0----------------------|-0----------------------||



================================================================================
Part 6: (Bar 1 is a segue from Part 5)
================================================================================

                                C
     Em                   V      ^        ^                ^  v  ^    ^  v
||--------------0--------0--||--0--------0--------|-(0)---------0----------|
||-----------0-----0-----0--||--0--------0--------|-(0)---------0-------0--|
||--------0-----------0--0--||--0--------0--------|-(0)---0--0--0----0--0--|
||-----2-----------------2--||--2--------2--------|-(2)---2--2--2----2--2--|
||-----------------------0--||--3--------3--------|-(3)---3--3--3----------|
||--0--------------------0--||--------------------|------------------------|

   Am                                           Em
   ^        v    ^  v     ^      ^        v     ^        ^    ^  v
|-----------0----------|------------------0--|--0--------0----0--0--|
|--1--------0----------|--1------1--------0--|--0--------0----0--0--|
|--2--------2----2--2--|--2------0--------0--|--0--------0----0--0--|
|--2-------------2--2--|--2------2--------0--|--2--------2----------|
|--0-------------------|---------------------|--2-------------------|
|----------------------|---------------------|--0-------------------|

   ^    ^  v  ^    ^  v     ^        v                ^  v  ^    ^  v
|-------------0-------0--|-----------0--------|-(0)---------0-------0--|
|--0----------0----0--0--|-----------0--------|-(0)---------0----0--0--|
|--0----0--0--0----0--0--|-----------0--------|-(0)---0--0--0----0--0--|
|--2----2--2--2----2--2--|--2--------2--------|-(2)---2--2--2----2--0--|
|-------2--2--2----------|--2-----------------|-(2)---2--2--2----0--2--|
|-------------0----------|--0-----------------|-(0)---------0----0--0--|

   C                                              Am
   ^        ^    ^  v     ^      ^  v    ^  v     ^        v
|--0--------0-------0--|--0---------0-------0--|-----------0--------|
|--1--------1-------1--|--1---------1----1--1--|--1--------1--------|
|--0--------0----0--0--|--0---------0----0--0--|--2--------2--------|
|--2--------2----2--2--|--2------2--2----2--2--|--2-----------------|
|--3--------3----3-----|--3------3--3----3-----|--0-----------------|
|----------------------|-----------------------|--------------------|

                          Em
   ^      ^      ^  v     ^        ^    ^  v     ^      v  ^    ^  v
|-------------------0--|--0--------0----0--0--|---------0--0-------0--|
|--1------1------1--0--|--0--------0----0--0--|--0------0--0----0--0--|
|--2------0------0--0--|--0--------0----0--0--|--0------0--0----0--0--|
|--2------2------2--0--|--2--------2----------|--2------2--2----2--2--|
|----------------------|--2-------------------|------------0----0--2--|
|----------------------|--0-------------------|------------0----------|

                                                      C
   ^  v    v  ^    ^  v     ^    ^  v  ^  v  ^  v     ^        ^    ^  v
|-----0----0----------0--|--0----0--0--------------|--0--------0-------0--|
|--0--0----0--0----0--0--|--0----0--0-----0-----0--|--1--------1-------1--|
|--0--0----0--0----0--0--|--0----0--0--0--0--0--0--|--0--------0----0--0--|
|--2--2----2--2----2--2--|--2----2--2--2--2--2--2--|--2--------2----2--2--|
|--2----------2----2-----|--2----2-----2--2--0--0--|--3--------3----3-----|
|--0----------0----0-----|--0----0-----0--0--0--0--|----------------------|

                           Am
   ^      ^  ^    ^  v     ^                   ^      ^        v
|--0---------0-------0--|-------------------|---------------------|
|--1---------1----1--1--|--1----------------|--1------1--------0--|
|--0---------0----0--0--|--2----------------|--2------2--------0--|
|--2------2--2----2--2--|--2----------------|--2------2--------2--|
|--3------3--3----3-----|--0----------------|--0------------------|
|-----------------------|-------------------|---------------------|
   Em
    ^                                                   Bm
|---------------0--------|--------------------------|------------------------|
|--0---------------0-----|--0--------0--------0-----|---------------0--------|
|--0------0-----------0--|-----0--------0-----------|--0------0--------0-----|
|--2---------2-----------|--------2--------2-----2--|--4---------4--------4--|
|--2---------------------|--------------------------|--2---------------------|
|--0---------------------|--------------------------|--0---------------------|

|-------------------------|-----------------------|-------------------------|
|--0--------0--------0----|--------------0--------|--0--------0--------0----|
|-----0--------0----------|--0--------------0-----|-----0--------0----------|
|--------4--------4-------|--4-----------------4--|--------4--------4-------|
|-------------------------|--2--------------------|-------------------------|
|-------------------------|--0--------------------|-------------------------|

|-------------------|-------------------|-------------------|
|-------------------|-------------------|-------------------|
|-------------------|-------------------|-------------------|
|--4----------------|--(4)--------------|--(4)--------------|
|--2----------------|--(2)--------------|--(2)--------------|
|--0----------------|--(0)--------------|--(0)--------------|

|-------------------||
|-------------------||
|-------------------||
|--(4)--------------||
|--(2)--------------||
|--(0)--------------||
00:00 / 00:00
Outros vídeos desta música
Repetir
Outros vídeos desta música
Compositor não encontrado.
Colaboração e revisão:
  • luana oliveira
136 exibições
    • ½ Tom
    • A
    • Bb
    • B
    • C
    • Db
    • D
    • Eb
    • E
    • F
    • F#
    • G
    • Ab
  • Adicionar à lista

    0 comentários

    Ver todos os comentários

    Conseguiu tocar?

    0 Tocaram 0 Ainda não

    Grave um vídeo tocando Epitaph e nos envie!

    00:00 / 00:00

    Cifra Club Pro

    Aproveite o Cifra Club com benefícios exclusivos e sem anúncios
    Cifra Club Pro
    Aproveite o Cifra Club com benefícios exclusivos e sem anúncios
    OK