Cifra Club

Mal Acostumado

Ara Ketu

Cifra: Principal (violão e guitarra)
Selo Cifra Club: esta cifra foi revisada para atender aos critérios oficiais da nossa Equipe de Qualidade.
tom: Cm
[Intro] Cm  Fm  Bb  Eb7M  Dm7(5-)  G7
        Cm  Fm  Bb  G7(4)  G7

[Tab - Solo Intro]

E|------------------------------------------|
B|-----3-4-3-------------3-4-3--------------|
G|---5-------5---------5-------5------------|
D|-5-----------5-6~--5-----------6-8--------|
A|------------------------------------------|
E|------------------------------------------|

E|------------------------------------------|
B|-----------6---6/8~--11-11-11-9-8-8~------|
G|-----5-7-8---6----------------------------|
D|---8--------------------------------------|
A|-8----------------------------------------|
E|------------------------------------------|

E|------------------------------------------|
B|-----3-4-3-------------3-4-3--------------|
G|---5-------5---------5-------5------------|
D|-5-----------5-6~--5-----------6-8--------|
A|------------------------------------------|
E|------------------------------------------|

E|------------------------------------------|
B|-----------6---6/8~--8h9p8-6-8-6----------|
G|-----5-7-8---6----------------------------|
D|---8--------------------------------------|
A|-8----------------------------------------|
E|------------------------------------------|

E|------------------------------------------|
B|-6-6-6------------------------------------|
G|-------8-7-5~-----------------------------|
D|------------------------------------------|
A|------------------------------------------|
E|------------------------------------------|

[Primeira Parte]

Cm                        Fm  Bb
Amor de verdade eu só senti
           Eb7M      Dm7(5-)  G7   
Foi com você meu bem
   Cm                      Fm     Bb
E todas as loucuras desse nosso amor
         Eb7M      Dm7(5-)  G7
Você me deu também

[Pré-Refrão]

   Cm                       Fm 
Você já faz parte da minha vida
   Bb                   Eb7M        G7
E fica tão difícil dividir você de mim
    Cm                     Fm
E quando faz carinho me abraça
                Ab  
Aí eu fico de graça
                     G7  
Te chamando pra me amar

[Refrão]

           Fm
Mal acostumado
            Bb
Você me deixou
           Eb7M
Mal acostumado
            Cm
Com o seu amor
       Ab
Então volta
                        Fm
Traz de volta o meu sorriso
                    G7(4)    G7  G7(4)  G7
Sem você não posso ser feliz

           Fm
Mal acostumado
            Bb
Você me deixou
           Eb7M
Mal acostumado
            Cm
Com o seu amor
       Ab
Então volta
                        Fm
Traz de volta o meu sorriso
                    G7(4)  G7  Cm
Sem você não posso ser  feliz

( Fm  Bb  Eb7M  Dm7(5-)  G7 )
( Cm  Fm  Bb  G7(4)  G7 )

[Primeira Parte]

Cm                        Fm  Bb
Amor de verdade eu só senti
           Eb7M      Dm7(5-)  G7   
Foi com você meu bem
   Cm                      Fm     Bb
E todas as loucuras desse nosso amor
         Eb7M      Dm7(5-)  G7
Você me deu também

[Pré-Refrão]

   Cm                       Fm 
Você já faz parte da minha vida
   Bb                   Eb7M        G7
E fica tão difícil dividir você de mim
    Cm                     Fm
E quando faz carinho me abraça
                Ab  
Aí eu fico de graça
                     G7  
Te chamando pra me amar

[Refrão]

           Fm
Mal acostumado
            Bb
Você me deixou
           Eb7M
Mal acostumado
            Cm
Com o seu amor
       Ab
Então volta
                        Fm
Traz de volta o meu sorriso
                    G7(4)    G7  G7(4)  G7
Sem você não posso ser feliz

           Fm
Mal acostumado
            Bb
Você me deixou
           Eb7M
Mal acostumado
            Cm
Com o seu amor
       Ab
Então volta
                        Fm
Traz de volta o meu sorriso
                    G7(4)    G7  G7(4)  G7
Sem você não posso ser feliz

           Fm
Mal acostumado
            Bb
Você me deixou
           Eb7M
Mal acostumado
            Cm
Com o seu amor
       Ab
Então volta
                        Fm
Traz de volta o meu sorriso
                    G7(4)  G7
Sem você não posso ser  feliz

[Final] Cm  Fm  Bb  Eb7M  Dm7(5-)  G7
        Cm  Fm  Bb  G7(4)  G7  Cm7(9)

[Tab - Solo Final]

E|------------------------------------------|
B|-----3-4-3-------------3-4-3--------------|
G|---5-------5---------5-------5------------|
D|-5-----------5-6~--5-----------6-8--------|
A|------------------------------------------|
E|------------------------------------------|

E|------------------------------------------|
B|-----------6---6/8~--11-11-11-9-8-8~------|
G|-----5-7-8---6----------------------------|
D|---8--------------------------------------|
A|-8----------------------------------------|
E|------------------------------------------|

E|------------------------------------------|
B|-----3-4-3-------------3-4-3--------------|
G|---5-------5---------5-------5------------|
D|-5-----------5-6~--5-----------6-8--------|
A|------------------------------------------|
E|------------------------------------------|

E|------------------------------------------|
B|-----------6---6/8~--8h9p8-6-8-6----------|
G|-----5-7-8---6----------------------------|
D|---8--------------------------------------|
A|-8----------------------------------------|
E|------------------------------------------|

E|------------------------------------------|
B|-6-6-6------------------------------------|
G|-------8-7-5~-----------------------------|
D|------------------------------------------|
A|------------------------------------------|
E|------------------------------------------|
00:00 / 00:00
Outros vídeos desta música
Repetir
Outros vídeos desta música
582.434 exibições
  • Simplificar cifra
    • ½ Tom
    • Am
    • Bbm
    • Bm
    • Cm
    • C#m
    • Dm
    • Ebm
    • Em
    • Fm
    • F#m
    • Gm
    • G#m
  • Adicionar à lista

Afinação da cifra

Afinador online

    0 comentários

    Ver todos os comentários

    Entre para o Cifra Club PRO

    Tenha acesso a benefícios exclusivos no App e no Site

    • Chega de anúncios

    • Mais recursos no app do Afinador

    • Atendimento Prioritário

    • Aumente seu limite de lista

    • Ajude a produzir mais conteúdo

    00:00 / 00:00

    Cifra Club Pro

    Aproveite o Cifra Club com benefícios exclusivos e sem anúncios
    Cifra Club Pro
    Aproveite o Cifra Club com benefícios exclusivos e sem anúncios
    OK