Cifra Club

Aprenda

D Is For Dangerous

Arctic Monkeys

Cifra: Versão 2 (violão e guitarra)
Quer fazer aulas de música com a gente? Responda essas perguntas
e nos ajude nesse projeto! →
tom: Ab
Verse 1

Guitar 1 & 2
|------------------------------------------------------------------|
|------------------------------------------------------------------|
|-10----8------10----8--------------11--11--11----------11--11--11-|
|-10----8--10--10----8--10--10-X-X--11--11--11--10-X-X--11--11--11-|
|-8-----6--10--8-----6--10--10-X-X--9---9---9---10-X-X--9---9---9--|
|----------8------------8---8--X-X--------------8--X-X-------------|
|
|------------------------------------------------|
|------------------------------------------------|
|-10----8------10----8---------------------------|
|-10----8--10--10----8--10--10-X-X--8-X-X--6-6-5-|
|-8-----6--10--8-----6--10--10-X-X--8-X-X--6-6-5-|
|----------8------------8---8--X-X--6-X-X--4-4-3-|


Verse 2

Guitar 1
|---------------------------------------|
|---------------------------------------|
|---------------------------------------|
|-10-8-10--8----------------------------|
|------------10-10-10-10-8-----8-10-----|\
|--------------------------11-------8-8-| \
                                           \ Repeat 7 times
Guitar 2                                   /
|---------------------------------------| / 
|---------------------------------------|/
|----------8-10-12-8-12-12-12-8-10-12-8-|
|-10-10-10-8-10-12-8-12-12-12-8-10-12-8-|
|-10-10-10-6-8--10-6-10-10-10-6-8--10-6-|
|-8--8--8-------------------------------|


Bridge

Guitar 1
|---------------------------------------|
|---------------------------------------|
|---------------------------------------|
|-10-8-10--8----------------------------|
|------------10-10-10-10-8-----8-10-----|
|--------------------------11-------8-8-|
                           Repeat 5 times

Guitar 2
|------------------------------------------------------------------|
|------------------------------------------------------------------|
|-10----8------10----8--------------11--11--11----------11--11--11-|
|-10----8--10--10----8--10--10-X-X--11--11--11--10-X-X--11--11--11-|
|-8-----6--10--8-----6--10--10-X-X--9---9---9---10-X-X--9---9---9--|
|----------8------------8---8--X-X--------------8--X-X-------------|
                                                      Repeat 2 times

Outro

Guitar 1
|--------------------------------------------|
|--------------------------------------------|
|--------------------------------------------|
|-10-8-10--8---------------------------------|
|------------10-10-10-10-8-9-9-9-9-9-9-9-9-9-|
|--------------------------------------------|
|
|------------------------------------------------|
|------------------------------------------------|
|------------------------------------------------|
|-10-8-10--8-------------------------------------|
|------------10-10-10-10-8-----8-10--------------|
|--------------------------11-------8-8-6-6-4-4-3|

Guitar 2
|------------------------------------------------------|
|------------------------------------------------------|
|-10----8------10----8--------------11--11--11---------|
|-10----8--10--10----8--10--10-X-X--11--11--11--10-X-X-|
|-8-----6--10--8-----6--10--10-X-X--9---9---9---10-X-X-|
|----------8------------8---8--X-X--------------8--X-X-|
|
|----------------------------|
|----------------------------|
|-11-11-11-11-11-11-11-11-11-|
|-11-11-11-11-11-11-11-11-11-|
|-9--9--9--9--9--9--9--9--9--|
|----------------------------|
|
|------------------------------------------------|
|------------------------------------------------|
|-10----8------10----8---------------------------|
|-10----8--10--10----8--10--10-X-X--8-X-X--6-6-5-|
|-8-----6--10--8-----6--10--10-X-X--8-X-X--6-6-5-|
|----------8------------8---8--X-X--6-X-X--4-4-3-|
Composição de Alex Turner / Arctic Monkeys
2.310 exibições
    • ½ Tom
    • A
    • Bb
    • B
    • C
    • Db
    • D
    • Eb
    • E
    • F
    • F#
    • G
    • Ab
  • Adicionar à lista

    0 comentários

    Ver todos os comentários

    Conseguiu tocar?

    0 Tocaram 0 Ainda não

    Grave um vídeo tocando D Is For Dangerous e nos envie!

    00:00 / 00:00
    Outros vídeos desta música
    Repetir Qualidade Automático
    Outros vídeos desta música
    00:00 / 00:00
    Automático

    Cifra Club Pro

    Aproveite o Cifra Club com benefícios exclusivos e sem anúncios
    Cifra Club Pro
    Aproveite o Cifra Club com benefícios exclusivos e sem anúncios
    OK