Cifra Club

Do I Wanna Know

Arctic Monkeys

Cifra: Principal (violão e guitarra)
exibições 874.349
Tom: Em
[Introdução]

[Riff Principal]

E|----------------------------------------------------|
B|----------------------------------------------------|
G|----------------------------------------------------| (2x)
D|----------------1h3-1-------------0-----------------|
A|-----1--------1--------3h5-3--1h3---3--1h3/5-3h5----|
E|-1h3---3~-1h3------------------------------------3--|


Primeira Parte:


(Riff principal 3X)


[Riff Principal - Variação]

E|----------------------------------------------------|
B|----------------------------------------------------|
G|----------------------------------------------------|
D|----------------1h3-1-------------0-----------------|
A|-----1--------1--------3h5-3--1h3---3/---5~---------|
E|-1h3---3~-1h3---------------------------------------|

Have you got colour in your cheeks?
Do you ever get the fear that you 
Can't shift the type
That sticks around 
Like summat in your teeth?
Are there some aces up your sleeve?
Have you no idea that you're in deep?
I dreamt about you nearly 
Every night this week
How many secrets can you keep?
'Cause there's this tune I found
That makes me think of you somehow
And I play it on repeat
Until I fall asleep
Spilling drinks on my settee


Refrão:


Parte 1 de 2

E|----------------------------------------------------|
B|----------------------------------------------------|
G|----------------------------------------------------|
D|-----------------------------0----------------------|
A|-10/--6--3-5-6-5-3--1-3--1-3----------1-------------|
E|-------------------------------3--1h3---3~----------|

E|----------------------------------------------------|
B|----------------------------------------------------|
G|----------------------------------------------------|
D|----------------------------------------------------|
A|-10/--6--3-5-6-5-3--1-3--1-3------------------------|
E|-------------------------------------3--------3~----|

Parte 2 de 2

E|----------------------------------------------------|
B|----------------------------------------------------|
G|----------------------------------------------------| (2x)
D|----------------1h3-1-------------0-----------------|
A|-----1--------1--------3h5-3--1h3---3--1h3/5-3h5----|
E|-1h3---3~-1h3------------------------------------3--|

(Do I wanna know)
If this feeling flows both ways?
(Sad to see you go)
Was sorta hoping that you’d stay
(Baby, we both know)
That the nights were mainly made
For saying things that you 
Can’t say tomorrow day

Crawling back to you
Ever thought of calling 
When you've had a few?
'Cause I always do
Maybe I'm too busy being 
Yours to fall for somebody new
Now I've thought it through
Crawling back to you


Segunda Parte:


So have you got the guts?
Been wondering if your 
Heart's still open
And if so, I wanna know 
What time it shuts
Simmer down and pucker up
I'm sorry to interrupt
It's just I'm constantly on the cusp

[Riff Principal]

E|----------------------------------------------------|
B|----------------------------------------------------|
G|----------------------------------------------------|
D|----------------1h3-1-------------0-----------------|
A|-----1--------1--------3h5-3--1h3---3--1h3/5-3h5----|
E|-1h3---3~-1h3------------------------------------3--|

[Riff Principal - Variação]

E|----------------------------------------------------|
B|----------------------------------------------------|
G|----------------------------------------------------|
D|----------------1h3-1-------------0-----------------|
A|-----1--------1--------3h5-3--1h3---3/---5~---------|
E|-1h3---3~-1h3---------------------------------------|

Of trying to kiss you
I don't know if you feel 
The same as I do
We could be together if you wanted to


Refrão:


Parte 1 de 4

E|----------------------------------------------------|
B|----------------------------------------------------|
G|----------------------------------------------------| (2x)
D|-----------------------------0----------------------|
A|-10/--6--3-5-6-5-3--1-3--1-3----------1-------------|
E|-------------------------------3--1h3---3~----------|

Parte 2 de 4

E|----------------------------------------------------|
B|----------------------------------------------------|
G|----------------------------------------------------| (2x)
D|----------------1h3-1-------------0-----------------|
A|-----1--------1--------3h5-3--1h3---3--1h3/5-3h5----|
E|-1h3---3~-1h3------------------------------------3--|

Parte 3 de 4

E|----------------------------------------------------|
B|----------------------------------------------------|
G|----------------------------------------------------| (2x)
D|-----------------------------0----------------------|
A|-10/--6--3-5-6-5-3--1-3--1-3----------1-------------|
E|-------------------------------3--1h3---3~----------|

E|----------------------------------------------------|
B|----------------------------------------------------|
G|----------------------------------------------------|
D|-----------------------------0----------------------|
A|-10/--6--3-5-6-5-3--1-3--1-3----------1-------------|
E|-------------------------------3--1h3---1~----------|

E|----------------------------------------------------|
B|----------------------------------------------------|
G|----------------------------------------------------|
D|--------------------------------------0-------------|
A|-10/--6--3-5-6-5-3--1-3-----------1h3---------------|
E|-------------------------------3--------3~----------|

Parte 4 de 4

E|----------------------------------------------------|
B|----------------------------------------------------|
G|----------------------------------------------------|
D|----------0-----------------------------------------|
A|-----1h3--------------------------------------------|
E|-3------------3-------------------------------------|

(Do I wanna know)
If this feeling flows both ways?
(Sad to see you go)
Was sorta hoping that you’d stay
(Baby, we both know)
That the nights were mainly made
For saying things that you 
Can’t say tomorrow day

Crawling back to you
Ever thought of calling 
When you've had a few?
'Cause I always do
Maybe I'm too busy being 
Yours to fall for somebody new
Now I've thought it through
Crawling back to you

(Do I wanna know)
If this feeling flows both ways?
(Sad to see you go)
Was sorta hoping that you’d stay
(Baby, we both know)
That the nights were mainly made
For saying things that you 
Can’t say tomorrow day

(Do I wanna know?)
Too busy being yours to fall
(Sad to see you go)
Ever thought of calling, darling?
(Do I wanna know?)
Do you want me crawling back to you?

0 comentários

    mostrar mais comentários

    Conseguiu tocar?

    220tocaram17ainda não

    Grave um vídeo tocando Do I Wanna Know e mande pra gente!

    00:00 / 00:00
    outros vídeos desta música
    repetirqualidadeAutomático
    Outro vídeos desta música
      00:00 / 00:00
      Capítulos
      • Tocando a Música
      • Dicas iniciais / Equipamentos
      • Tocando a Introdução
      • Ensinando Introdução - Riff Principal
      • Dicas Primeira Parte
      • Tocando Primeira Parte
      • Ensinando Primeira Parte - Riff Principal
      • Primeira Parte - Riff Principal (variação)
      • Dicas Refrão
      • Tocando Primeiro Refrão
      • Ensinando Primeiro Refrão - Parte 1 de 2
      • Ensinando Primeiro Refrão - Parte 2 de 2
      • Dicas Segunda Parte
      • Tocando Segunda Parte
      • Dicas Parte Final
      • Tocando Final
      • Ensinando Final - Parte 1 de 4
      • Ensinando Final - Parte 2 de 4
      • Ensinando Final - Parte 3 de 4
      • Ensinando Final - Parte 4 de 4
      • Dicas Finais / Encerramento
      • Ficha Técnica
      OK