Enviar cifraEntrar

Fluorescent Adolescent

Arctic Monkeys

Cifra: Principal
exibições 402.329
Tom: E
Introdução: E  C#m  F#m  B  (2x)


E|-----------------------------------------------------|
B|-----------------------------------------------------|
G|-----------------------------------------------------|
D|-----------------------------------------------------|
A|------------2-4----4--2------------4-2----2-2--------|
E|-0----0-2-4--------------2----2--2------------4-2----|


E|-----------------------------------------------------|
B|-----------------------------------------------------|
G|-----------------------------------------------------|
D|-----------------------------------------------------|
A|------------2-4----4--2------------4-2----2-2--------|
E|-0----0-2-4--------------2----2--2-------------------|



Primeira Parte:

                            E
You used to get it in your fishnets
                             C#m
Now you only get it in your night dress
                          F#m
Discarded all the naughty     

Nights for niceness
                          B
Landed in a very common crisis


E|-----------------------------------------------------|
B|-----------------------------------------------------|
G|-----------------------------------------------------|
D|-----------------------------------------------------|
A|------------2-4----4--2------------4-2----2----------|
E|-0----0-2-4--------------2----2--2-------------------|


                             E
Everything's in order in a black hole
                       
Nothing seems as pretty
        C#m
As the past though
                              F#m
That Bloody Mary's lacking a Tabasco
                                B
Remember when you used to be a rascal?


Segunda Parte:

                      F#m
Oh, that boy's a slag
                      B
The best you ever had
                      F#m
The best you ever had
             B               F#m
Is just a memory and those dreams

                 B
But as daft as they seem
             F#m
As daft as they seem
                    A
My love, when you dreamed them up


Terceira Parte:


E|----------12-----9----7------14-----------|
B|-------12--------9----7--12--14-----------|
G|----13-----------9----8--13--14-----------|
D|-14-------------11----9------16-----------|
A|------------------------------------------|
E|------------------------------------------|


E|----------16------------------------------|
B|----16-19---------------------------------|
G|-16---------------------------------------|
D|------------------------------------------|
A|------------------------------------------|
E|------------------------------------------|


E|----------12-----9----7------14-----------|
B|-------12--------9----7--12--14-----------|
G|----13-----------9----8--13--14-----------|
D|-14-------------11----9------16-----------|
A|------------------------------------------|
E|------------------------------------------|


                
Flicking through 
                  E
A little book of sex tips
             
Remember when 
                    C#m
The boys were all electric?
                  
Now when she tells 
             F#m
She's gonna get it
            
I'm guessing 
                        B
That she'd rather just forget it
                              E
Clinging to not getting sentimental
                     
Said she wasn't going 
         C#m
But she went still
                               F#m
Likes her gentlemen to not be gentle
                                  
Was it a megadobber or a betting pencil


Quarta Parte:

                   F#m
Oh, that boy's a slag
                   B
The best you ever had
                   F#m
The best you ever had
           B                 F#m
Is just a memory and those dreams

                         B
But as daft as they seem
             F#m
As daft as they seem
                   B
My love when you dream them up


Ponte:


E|-------14--------------------------------------------|
B|----16----14----16-----------------------------------|
G|-16----------------16----13--------------------------|  (3x)
D|-----------------------------------------------------|
A|-----------------------------------------------------|
E|-----------------------------------------------------|


E|-------14--------------------------------------------|
B|----16----14----16-----------------------------------|
G|-16----------------16----13----11--------------------|  
D|-----------------------------------------------------|
A|-----------------------------------------------------|
E|-----------------------------------------------------|


      G#m
Oh, flo

Where did you go?

Where did you go?
                  F#m
Where did you go?


Quinta Parte:

( E  C#m  F#m  B )


E|-----------------------------------------------------|
B|-----------------------------------------------------|
G|-----------------------------------------------------|
D|-----------------------------------------------------|
A|------------2-4----4--2------------4-2----2-2--------|
E|-0----0-2-4--------------2----2--2------------4-2----|


E|-----------------------------------------------------|
B|-----------------------------------------------------|
G|-----------------------------------------------------|
D|-----------------------------------------------------|
A|------------2-4----4--2------------4-2----2----------|
E|-0----0-2-4--------------2----2--2-------------------|


E|-----------------------------------------------------|
B|-----------------------------------------------------|
G|-----------------------------------------------------|
D|-----------------------------------------------------|
A|------------2-4----4--2------------4-2---------------|
E|-0----0-2-4--------------2----2--2-------------------|


E|-----------------------------------------------------|
B|-----------------------------------------------------|
G|-----------------------------------------------------|
D|-----------------------------------------------------|
A|-2-2-2-2-2-2-2/6-6-6-6-6-6-6h7-6-4-------------------|
E|-----------------------------------------------------|


E         C#m
  Falling about
         F#m                        B
You took     a left off Last Laugh Lane
E                       C#m
  You were just sounded it out
     F#m                   B     X
But you're not coming back again


Sexta Parte:

(Guitarra 1)


E|-----------------------------------------------------|
B|-----------------------------------------------------|
G|-----------------------------------------------------|
D|-----------------------------------------------------|
A|------------2-4----2---------------4-2----2----------|
E|-0----0-2-4-----------4--2----2--2-------------------|


(Guitarra 2)


E|-----------------------------------------------------|
B|-----------------------------------------------------|
G|-9-9-9-9-9-9-9-9-9-9-9-9-9-9-8-8---------------------|
D|-----------------------------------------------------|
A|-7-7-7-7-7-7-7-7-7-7-7-7-7-7-6-6---------------------|
E|-----------------------------------------------------|


E|-----------------------------------------------------|
B|-----------------------------------------------------|
G|-9-9-9-9-9-9-9-9-8-8-8-8-8-8-8-8---------------------|
D|-----------------------------------------------------|
A|-7-7-7-7-7-7-7-7-6-6-6-6-6-6-6-6---------------------|
E|-----------------------------------------------------|


E                C#m
  You’re falling about
     F#m                        B
You took a left off Last Laugh Lane
              E         C#m
You were just   sounded it out
     F#m                     B
But you're not coming back again

                            E
You used to get it in your fishnets
                             C#m
Now you only get it in your night dress
                         
Discarded all the naughty 
 F#m
Nights for niceness
                          B
Landed in a very common crisis
                             E
Everything's in order in a black hole
                        
Nothing seems as pretty 
        C#m
As the past though
                               F#m
That Bloody Mary's lacking in Tabasco
                                B
Remember when you used to be a rascal? 

( C#m )
  • 1
  • 2
  • 3
  • 4
  • 5
  • 6
  • 7
  • 8
  • 9
  • 10
  • 11
  • 12

    0 comentários

      mostrar mais comentários

      Conseguiu tocar?

      132tocaram2ainda não

      Grave um vídeo tocando Fluorescent Adolescent e mande pra gente!

      00:00 / 00:00
      outros vídeos desta música
      repetirqualidadeautomática
      • automática
      Outro vídeos desta música
        00:00 / 00:00
        automática
        • automática
        3 versões de Tab de baixoexibiçõescontribuições
        1 versão de Tab de bateriaexibiçõescontribuições
        3 versões de Guitar Proformatodownloadscontribuição
        1 versão de Partiturasformatodownloadscontribuição
        fecharplay/pause subir/descer velocidade
          acordes
          fechar
          OK
          Feedback