Cifra Club

Aprenda

R U Mine

Arctic Monkeys

Cifra: Principal (violão e guitarra)
Quer fazer aulas de música com a gente? Responda essas perguntas
e nos ajude nesse projeto! →
tom: A
[Primeira Estrofe]

E|----------------------------------------------------|
B|----------------------------------------------------|
G|----------------------------------------------------|
D|----------------------------------------------------|
A|----------------------------------------------------|
E|-2--2-2--7h9--7h9--10--10-10--9-7--7/19\------------|

E|----------------------------------------------------|
B|----------------------------------------------------|
G|----------------------------------------------------|
D|----------------------------------------------------|
A|----------------------------------------------------|
E|-2--2-2--7h9--7h9--10--10-10--9-7--7/19\------------|

E|----------------------------------------------------|
B|----------------------------------------------------|
G|----------------------------------------------------|
D|----------------------------------------------------|
A|----------------------------------------------------|
E|-2--2-2--7h9--7h9--10--10-10--9-7--7/19\------------|

E|----------------------------------------------------|
B|----------------------------------------------------|
G|----------------------------------------------------|
D|----------------------------------------------------|
A|----------------------------------------------------|
E|-2--2-2--7h9--7h9--10--10-10--9-7--7-7--5-----------|

I'm a puppet on a string
Tracy island
Time-traveling diamond
Cutter shaped heartaches
That comes to find you
For in some velvet morning
Years too late
She's a silver lining
Lone ranger riding
Through an open space
In my mind
When she's not right 
There beside me

[Primeiro Refrão]

E|----------------------------------------------------|
B|----------------------------------------------------|
G|----------------------------------------------------|
D|-----------------7----------------------------------|
A|-------------7h9----9--7----------------------------|
E|-2--2-2--7h9--------------10--10-10--9-7--7-7--5----|

E|----------------------------------------------------|
B|----------------------------------------------------|
G|----------------------------------------------------|
D|-----------------7----------------------------------|
A|-------------7h9----9--7----------------------------|
E|-2--2-2--7h9--------------10--10-10--9-7--7-7--5----|

E|----------------------------------------------------|
B|----------------------------------------------------|
G|----------------------------------------------------|
D|-----------------7-7h9p7----------------------------|
A|-------------7h9---------9p7------------------------|
E|-2--2-2--7h9-----------------10--10-10--9-7--7-7--5-|

E|----------------------------------------------------|
B|----------------------------------------------------|
G|----------------------------------------------------|
D|-----------------7----------------------------------|
A|-------------7h9----9--7----------------------------|
E|-2--2-2--7h9--------------10--10-10--9-7--7-7--5----|

E|----------------------------------------------------|
B|----------------------------------------------------|
G|----------------------------------------------------|
D|--------------------------12--12-12--11-9--9-9--7---|
A|----------------------------------------------------|
E|-2--2-2-------------------10--10-10---9-7--7-7--5---|

E|----------------------------------------------------|
B|----------------------------------------------------|
G|----------------------------------------------------|
D|-4--4-4-------------------12--12-12--11-9--9-9--7---|
A|----------------------------------------------------|
E|-2--2-2-------------------10--10-10---9-7--7-7--5---|

E|----------------------------------------------------|
B|----------------------------------------------------|
G|----------------------------------------------------|
D|-4--4-4-------------------12--12-12--11-9--9-9--7---|
A|----------------------------------------------------|
E|-2--2-2-------------------10--10-10---9-7--7-7--5---|

E|----------------------------------------------------|
B|----------------------------------------------------|
G|----------------------------------------------------|
D|-4--4-4---------------------------------------------|
A|-------------7h9-----7h9----------------------------|
E|-2--2-2--7h9-----7h9-----7h9-10--10-10---9----7---5-|

I go crazy
Cause here isn't where I wanna be
And satisfaction feels 
Like a distant memory
And I can't help myself all I 
Wanna hear her say is: are you mine?
Well, are you mine?
Are you mine?
Are you mine? 
Alright

[Segunda Estrofe]

I guess what I'm trying to say 
Is I need the deep end
Keep imagining meeting
Wished away entire lifetimes
Unfair we're not somewhere
Misbehaving for days
Great escape
Lost track of time and space
She's a silver lining
Climbing on my desire

[Segundo Refrão]

E|----------------------------------------------------|
B|----------------------------------------------------|
G|----------------------------------------------------|
D|-----------------7----------------------------------|
A|-------------7h9----9--7----------------------------|
E|-2--2-2--7h9--------------10--10-10--9-7--7-7--5----|

E|----------------------------------------------------|
B|----------------------------------------------------|
G|----------------------------------------------------|
D|-----------------7----------------------------------|
A|-------------7h9----9--7----------------------------|
E|-2--2-2--7h9--------------10--10-10--9-7--7-7--5----|

E|----------------------------------------------------|
B|----------------------------------------------------|
G|----------------------------------------------------|
D|-----------------7-7h9p7----------------------------|
A|-------------7h9---------9p7------------------------|
E|-2--2-2--7h9-----------------10--10-10--9-7--7-7--5-|

E|----------------------------------------------------|
B|----------------------------------------------------|
G|----------------------------------------------------|
D|-----------------7----------------------------------|
A|-------------7h9----9--7----------------------------|
E|-2--2-2--7h9--------------10--10-10--9-7--7-7--5----|

E|----------------------------------------------------|
B|----------------------------------------------------|
G|----------------------------------------------------|
D|--------------------------12--12-12--11-9--9-9--7---|
A|----------------------------------------------------|
E|--------------------------10--10-10---9-7--7-7--5---|

E|----------------------------------------------------|
B|----------------------------------------------------|
G|----------------------------------------------------|
D|-4--4-4-------------------12--12-12--11-9--9-9--7---|
A|----------------------------------------------------|
E|-2--2-2-------------------10--10-10---9-7--7-7--5---|

E|----------------------------------------------------|
B|----------------------------------------------------|
G|----------------------------------------------------|
D|-4--4-4-------------------12--12-12--11-9--9-9--7---|
A|----------------------------------------------------|
E|-2--2-2-------------------10--10-10---9-7--7-7--5---|

E|----------------------------------------------------|
B|----------------------------------------------------|
G|----------------------------------------------------|
D|-4--4-4---------------------------------------------|
A|-------------7h9-----7h9----------------------------|
E|-2--2-2--7h9-----7h9-----7h9-10--10-10---9----12--9-|

And I go crazy
Cause here isn't where I wanna be
And satisfaction feels 
Like a distant memory
And I can't help myself all I
Wanna hear her say is: Are you mine?
Well, are you mine?
(Are you mine tomorrow?)
Are you mine? 
(Or just mine tonight?)
Are you mine? 
(Are you mine?)

[Ponte]

E|----------------------------------------------------|
B|----------------------------------------------------|
G|----------------------------------------------------|
D|----------------------------------------------------|
A|----------------------------------------------------|
E|-7--7-7--7-7-7--7-7--9--10--10-10--10-10--10-10\----|

E|----------------------------------------------------|
B|----------------------------------------------------|
G|----------------------------------------------------|
D|----------------------------------------------------|
A|----------------------------------------------------|
E|-2--2-2--2-2-2--2-2--4---5---5-5--5-5--5-5--5/------|

E|----------------------------------------------------|
B|----------------------------------------------------|
G|----------------------------------------------------|
D|----------------------------------------------------|
A|----------------------------------------------------|
E|-7--7-7--7-7-7-7-7-7-7--7--10\---9\---7\---5\-------|

And the thrill of the chase 
Moves in mysterious ways
So in case I'm mistaken
I just wanna hear you say
You got me, baby
Are you mine?

E|----------------------------------------------------|
B|-------------------------7h10b--10\--5b--5\---------|
G|---------------------6h9----------------------------|
D|-----------------7h9--------------------------------|
A|-------------7h9------------------------------------|
E|-2--2-2--7h9----------------------------------------|

E|----------------------------------------------------|
B|----------------------------------------------------|
G|----------------------------------------------------|
D|----------------------------------------------------|
A|----------------------------------------------------|
E|-2--2-2--7h9p7h9p...--10--10-10--9-7--5-7--7/9--5---|

E|----------------------------------------------------|
B|----------------------------------------------------|
G|----------------------------------------------------|
D|-4-4--4---------------------------------------------|
A|----------------------------------------------------|
E|-2-2--2---------------------------------------------|

She's a silver lining
Llone ranger riding
Through an open space
In my mind when she's not right 
There beside me

[Terceiro Refrão]

E|----------------------------------------------------|
B|----------------------------------------------------|
G|----------------------------------------------------|
D|-----------------7----------------------------------|
A|-------------7h9----9--7----------------------------|
E|-2--2-2--7h9--------------10--10-10--9-7--7-7--5----|

E|----------------------------------------------------|
B|----------------------------------------------------|
G|----------------------------------------------------|
D|----------------------------------------------------|
A|-------------7h9-9--7h9-9---------------------------|
E|-2--2-2--7h9--------------10--10-10--9-7-5/7-7h9-7h9|

E|----------------------------------------------------|
B|----------------------------------------------------|
G|----------------------------------------------------|
D|-----------------7----------------------------------|
A|-------------7h9----9--7----------------------------|
E|-2--2-2--7h9--------------10--10-10--9-7--7-7--5----|

E|----------------------------------------------------|
B|----------------------------------------------------|
G|----------------------------------------------------|
D|----------------------------------------------------|
A|-------------7h9-----7h9----------------------------|
E|-2--2-2--7h9-----7h9-----7h9-10--10-10--9-7--7-7--5-|

I go crazy
Cause here isn't where I wanna be
And satisfaction feels 
Like a distant memory
And I can't help myself all I 
Wanna hear her say is: Are you mine?
Well, are you mine?

E|----------------------------------------------------|
B|----------------------------------------------------|
G|----------------------------------------------------|
D|----------------------------------------------------|
A|-4...----5...-7...----------------------------------|
E|-2...----5...-7...----------------------------------|

E|----------------------------------------------------|
B|----------------------------------------------------|
G|----------------------------------------------------|
D|----------------------------------------------------|
A|-4...----5...-7...----------------------------------|
E|-2...----5...-7...--9\------------------------------|

E|----------------------------------------------------|
B|----------------------------------------------------|
G|----------------------------------------------------|
D|----------------------------------------------------|
A|-4...----5...-7...----------------------------------|
E|-2...----5...-7...--9\------------------------------|

E|----------------------------------------------------|
B|----------------------------------------------------|
G|----------------------------------------------------|
D|--------------------7-------------------------------|
A|-------------7h9--9---9-7--------------7------------|
E|-2--2-2--7h9--------------9/10--10--10---10-9-7--9-5|

E|----------------------------------------------------|
B|----------------------------------------------------|
G|----------------------------------------------------|
D|-4-4--4-4-------------------------------------------|
A|----------------------------------------------------|
E|-2-2--2-2-------------------------------------------|

(Are you mine tomorrow?)
Are you mine?
(Or just mine tonight?)
Are you mine?
(Are you mine tomorrow?)
(Or just mine tonight?)
Composição de Alex Turner / Nick O'Malley
390.795 exibições
  • Simplificar cifra
    • ½ Tom
    • A
    • Bb
    • B
    • C
    • Db
    • D
    • Eb
    • E
    • F
    • F#
    • G
    • Ab
  • Adicionar à lista

    0 comentários

    Ver todos os comentários
    00:00 / 00:00
    Outros vídeos desta música
    Repetir Qualidade Automático
    Outros vídeos desta música
    00:00 / 00:00
    Automático
    Capítulos
    • Tocando a música
    • Apresentação / Equipamentos
    • Configuração Pedal
    • Dicas da música
    • Tocando Primeira Estrofe
    • Treinando Primeira Estrofe
    • Dicas Primeiro Refrão
    • Tocando Primeiro Refrão
    • Treinando Primeiro Refrão - Parte 1
    • Treinando Primeiro Refrão - Parte 2
    • Dicas Segunda Estrofe - Segundo Refrão
    • Tocando Segunda Estrofe e Refrão
    • Treinando Segundo Refrão - Parte 1
    • Treinando Segundo Refrão - Parte 2
    • Dicas Ponte
    • Tocando Ponte
    • Treinando Ponte - Primeira Estrofe
    • Treinando Ponte - Segunda Estrofe
    • Dicas Repetição
    • Tocando Terceiro Refrão - Final
    • Treinando Refrão Final
    • Treinando Final
    • Encerramento
    • Ficha Técnica

    Cifra Club Pro

    Aproveite o Cifra Club com benefícios exclusivos e sem anúncios
    Cifra Club Pro
    Aproveite o Cifra Club com benefícios exclusivos e sem anúncios
    OK