Cifra Club

Aprenda

Science Fiction

Arctic Monkeys

Cifra: Principal (violão e guitarra)
Já pensou em usar uma coleção de roupas do Cifra Club? Responda as perguntas abaixo e nos ajude nessa missão! →
tom: Bb
[Intro] Cm  Gm
                                      Cm
Religious iconography giving you the creeps?
              Gm
I feel rougher than a disco lizard tongue along your cheek
                  Cm
The rise of the machines
      Gm
I must admit you gave me something momentarily
                   Cm
In which I could believe

But the hand of harsh reality's un-gloved

And it's on its way back in to scoop you up

But not on my watch

I want to stay with you, my love
               D
The way some science fiction does

E|-------------------------------------------|
B|--15-16--13-15--11-13--10-11--8-10--7--8~--|
G|-------------------------------------------|
D|-------------------------------------------|
A|-------------------------------------------|
E|-------------------------------------------|

( Cm  Gm )

                                                Cm
Reflections in the silver screen of strange societies
       Gm
Swamp monster with a hard-on for connectivity
                      Cm
The ascension of the cream
    Gm
Mass panic on a not too distant future colony
             Cm
Quantitative easing

I want to make a simple point about peace and love

But in a sexy way where it's not obvious

Highlight dangers and send out hidden messages
               D
The way some science fiction does

E|-------------------------------------------|
B|--15-16--13-15--11-13--10-11--8-10--7--8~--|
G|-------------------------------------------|
D|-------------------------------------------|
A|-------------------------------------------|
E|-------------------------------------------|

    Cm   Gm
The way some science fiction does
     D                      Cm
I've got the world on a wire
            D             Cm
In my little mirror, mirror on the wall
        D           Cm       Gm
In the pocket of my raincoat

(Dedilhado da última estrofe)

    Cm
E|---6---5---3-------------------| -------------|
B|------------3---3-----------3--| --3------3---|
G|-------------------5---3------| ------3-------|
D|---------------------5---5----| ----5----5----|
A|-------------------------------| -------------|
E|-------------------------------| -------------|

E|---6---5---3-------------------| ----------------|
B|------------3---3-----------3--| --3---------3---|
G|-----------------5----3-------| ----5---3---5----|
D|-------------------5-----5----| -----------------|
A|-------------------------------| ----------------|
E|-------------------------------| ----------------|

So I tried to write a song to make you blush

But I've a feeling that the whole thing
                                             D
May well just end up too clever for its own good

E|-------------------------------------------|
B|--15-16--13-15--11-13--10-11--8-10--7--8~--|
G|-------------------------------------------|
D|-------------------------------------------|
A|-------------------------------------------|
E|-------------------------------------------|

    Cm  Gm                       Cm Gm
The way some science fiction does
Composição de Alex Turner / James Ford
Colaboração e revisão:
  • Gabriel Bettin
  • Matheus Araújo
476 exibições
    • ½ Tom
    • A
    • Bb
    • B
    • C
    • Db
    • D
    • Eb
    • E
    • F
    • F#
    • G
    • Ab
  • Adicionar à lista

    0 comentários

    Ver todos os comentários

    Conseguiu tocar?

    1 Tocaram 0 Ainda não

    Grave um vídeo tocando Science Fiction e nos envie!

    00:00 / 00:00
    Outros vídeos desta música
    Repetir Qualidade Automático
    Outros vídeos desta música
    00:00 / 00:00
    Automático

    Cifra Club Pro

    Aproveite o Cifra Club com benefícios exclusivos e sem anúncios
    Cifra Club Pro
    Aproveite o Cifra Club com benefícios exclusivos e sem anúncios
    OK