Cifra Club

Y Es Que Sucede Así

Arena Hash

Cifra: Principal (violão e guitarra)
Selo Cifra Club: esta cifra foi revisada para atender aos critérios oficiais da nossa Equipe de Qualidade.
tom: D
      A
Después de tiempo
     C#m
Me la encontré otra vez
      G
Estaba bella
      Bm
Como las estrellas
  A                        C#m
Había desarrollado más de lo que pensé
   G     Bm           D
Hola que tal como te va
                 Bm               F#m  E
Qué lindo cuerpo tienes vamos a pasear Oh oh
D          Bm                F#m     E
Estaba fascinado al verla caminar Oh oh

Coro 2x: A  Em  Bm  G

Ponte:

E|----------------------------------------------------------|
B|---0-2-0-0-0----2-3-3-3-2-0----0-2-0-0-0----2-3-3-3-2-0---|
G|2-2-------2-2--2------------2-2-------2-2--2------------2-|
D|--------------4--------------------------4----------------|
A|----------------------------------------------------------|
E|----------------------------------------------------------|

 A                  C#m
Se removieron mis recuerdos de niñez
 G                 Bm
Cuando en la acera linda estaba ella
 A                         C#m
Jugando a las muñecas les daba de comer
 G    Bm           D
Hola dije quieres jugar
               Bm               F#m     E
Soy el mejor doctor de toda la ciudad Oh oh
    D           Bm            F#m     E
Me dijo si me besas me dejo curar Oh oh

       A                     C#m
Y así en el tiempo pues nos solíamos ver
G                 Bm
Noches traviesas bajo la escalera
A                      C#m
Éramos perversos, nos sentíamos bien
 G        Bm             D
Ahora el asunto es refrescar
               Bm                F#m     E
Todas aquellas cosas sin ser muy brutal Oh oh
 D             Bm                F#m     E
Cogí su bella mano y la empecé a besar Oh oh

Coro:

  A                             Em
Y es que sucede así cuando una chica es sensual
  Bm               G                         A
Puede sentir la explosión de un volcán y el delirio
          Em          Bm               G
Si tú la sabes besar, puede perder el control se olvida de su sitio

Coro: A  Em  Bm  G (2x)

Ponte:

E|----------------------------------------------------------|
B|---0-2-0-0-0----2-3-3-3-2-0----0-2-0-0-0----2-3-3-3-2-0---|
G|2-2-------2-2--2------------2-2-------2-2--2------------2-|
D|--------------4--------------------------4----------------|
A|----------------------------------------------------------|
E|----------------------------------------------------------|

        A               C#m
Y en el silencio ella bajo la mirada
 G              Bm
No dijo nada nunca dijo nada
  A                    C#m
Era como un sueño todo me salió bien
 G     Bm               D
Oye mi amor que hermosa estas
              Bm             F#m   E
Sigues con esa mágica sensualidad Oh oh
D               Bm              F#m   E
Las cosas no terminan si sabes actuar Oh oh

Coro:

  A                             Em
Y es que sucede así cuando una chica es sensual
  Bm               G                         A
Puede sentir la explosión de un volcán y el delirio
          Em          Bm               G
Si tú la sabes besar, suele perder el control se olvida de su sitio

Coro: A  Em  Bm  G (2x)

Ponte:

E|----------------------------------------------------------|
B|---0-2-0-0-0----2-3-3-3-2-0----0-2-0-0-0----2-3-3-3-2-0---|
G|2-2-------2-2--2------------2-2-------2-2--2------------2-|
D|--------------4--------------------------4----------------|
A|----------------------------------------------------------|
E|----------------------------------------------------------|
Acompañamiento del teclado: D  Bm  F#m  E (2x)

      A
Después de tiempo
     C#m
Me la encontré la otra vez
      G
Estaba bella
      Bm
Y me la lleve a pasear

Coro: A  Em  Bm  G (Hasta el final)

Ponte:

E|----------------------------------------------------------|
B|---0-2-0-0-0----2-3-3-3-2-0----0-2-0-0-0----2-3-3-3-2-0---|
G|2-2-------2-2--2------------2-2-------2-2--2------------2-|
D|--------------4--------------------------4----------------|
A|----------------------------------------------------------|
E|----------------------------------------------------------|
Outros vídeos desta música
    20.428 exibições
      • ½ Tom
      • A
      • Bb
      • B
      • C
      • Db
      • D
      • Eb
      • E
      • F
      • F#
      • G
      • Ab
    • Adicionar à lista

    Afinação da cifra

    Afinador online

      0 comentários

      Ver todos os comentários

      Entre para o Cifra Club PRO

      Tenha acesso a benefícios exclusivos no App e no Site

      • Chega de anúncios

      • Badges exclusivas

      • Mais recursos no app do Afinador

      • Atendimento Prioritário

      • Aumente seu limite de lista

      • Ajude a produzir mais conteúdo

      Cifra Club Pro

      Aproveite o Cifra Club com benefícios exclusivos e sem anúncios
      Cifra Club Pro
      Aproveite o Cifra Club com benefícios exclusivos e sem anúncios
      Ops (: Contenido disponible sólo en portugués.
      OK