Cifra Club

Aprenda

Casa do Sol

Armandinho

Tab de baixo: Principal
o Baixo entra junto com o solo..

G|-------------------------------------------------|
D|------------------------------------------4------|
A|----2-2-5--2--2-2-5-------7--7-5-5----5-7---5----|
E|-3-------------------5--5-----------5---------3--|


Por do sol...

G|--------------------------------2--0-0------------------------------------|
D|-------------2---------0------2--------2-2-------------2---------0--------|
A|-3--3----3-3---3--2--2---2-0---------------3--3----3-3---3--2--2---2-0----|
E|-------3-----------------------------------------3------------------------|

onde esta voocee..

quando xega o intardecer..

G|-------------------------------------------------|
D|------------------------------------------4------|
A|----2-2-5--2--2-2-5-------7--7-5-5----5-7---5----|
E|-3-------------------5--5-----------5---------3--|

e fika assim ateh o final..
Composição de Armandinho
Colaboração e revisão:
  • Dyego Quevedo
17.261 exibições

0 comentários

Mostrar mais comentários

Conseguiu tocar?

0 Tocaram 0 Ainda não

Grave um vídeo tocando Casa do Sol e mande pra gente!

00:00 / 00:00
outros vídeos desta música
repetir qualidade Automático
Outros vídeos desta música
00:00 / 00:00
Automático

Cifra Club Pro

Aproveite o Cifra Club com benefícios exclusivos e sem anúncios
7 dias grátis
Cifra Club Pro
Aproveite o Cifra Club com benefícios exclusivos e sem anúncios
7 dias grátis
OK