Cifra Club

Joia Rara

Armandinho

Cifra: Principal (violão e guitarra)
Selo Cifra Club: esta cifra foi revisada para atender aos critérios oficiais da nossa Equipe de Qualidade.
tom: F# (forma dos acordes no tom de F) Capotraste na 1ª casa
[Intro] Dm Gm C  Dm

E|-------------|-----------------------|
B|-------------|-----------------------|
G|--8-6-8------|-----------------8~~---|
D|--------6~~--|--8-11-8-11-8-11-------|
A|-------------|-----------------------|
E|-------------|-----------------------|

E|-------------|--------------------------|
B|-------------|--------------------------|
G|--8-6-8------|--------------------8~~---|
D|--------6~~--|--8-11-8-11-8-11-11-------|
A|-------------|--------------------------|
E|-------------|--------------------------|

          Gm       C
Você é uma joia rara linda
        Dm
Que eu não posso mais tocar 2x

          Gm   C
Eu fico a lembrar
          Dm
Eu fico a pensar 2x

           Gm
Se essa joia é só minha
    C         Dm
Se não é de mais ninguém
              Gm
Se essa joia tem um príncipe
   C        Dm
Ou se também tem um rei

           Gm
Mas se ela for só minha
       C        Dm
Enquanto tá comigo e for bom
    Bb    C      Dm
Apaga a luz e aumenta o som

Repete toda a música

E|-------------------|----------------------------------|
B|--------14---------|----------------------------------|
G|--13b15-----13b15--|--15r13-11-11h13p11---------------|
D|-------------------|--------------------13-11-13-13---|
A|-------------------|----------------------------------|
E|-------------------|----------------------------------|

E|-------------------|-------------------------|
B|--------14---------|-------------------------|
G|--13b15-----13b15--|--15r13-11-11h13p11~~~~--|
D|-------------------|-------------------------|
A|-------------------|-------------------------|
E|-------------------|-------------------------|

E|----------------------------|-----------------|
B|----------------------------|--6h7p6----------|
G|---------------6-8-8-6-8~~--|--------8-6-8~~--|
D|-----------6-8--------------|-----------------|
A|--6-7-8-9-------------------|-----------------|
E|----------------------------|-----------------|

E|---------------------------|--9-9------|
B|----7-9-11-8h11p8----8-11--|----10b11--|
G|--8---------------11-------|-----------|
D|---------------------------|-----------|
A|---------------------------|-----------|
E|---------------------------|-----------|

E|----------------9-9-------|
B|--9h10p9----11-----10b11--|
G|---------11---------------|
D|--------------------------|
A|--------------------------|
E|--------------------------|

E|----------------9-9----9-11-14-11~~--|
B|--9h10p9----11------11---------------|
G|---------11--------------------------|
D|-------------------------------------|
A|-------------------------------------|
E|-------------------------------------|

   Gm    C      Dm
Pra que pensar no futuro
   Gm    C      Dm
Pra que deixar de viver
  Gm     C        Dm
Pra que ficar em cima do muro
    Bb     C    Dm
Apaga a luz e aumenta o som
    Bb     C    Dm
Apaga a luz e aumenta o som
    Bb     C    Dm
Apaga a luz e aumenta o som

E|-------------|-----------------------|
B|-------------|-----------------------|
G|--8-6-8------|-----------------8~~---|
D|--------6~~--|--8-11-8-11-8-11-------|
A|-------------|-----------------------|
E|-------------|-----------------------|

E|-------------|--------------------------|
B|-------------|--------------------------|
G|--8-6-8------|--------------------8~~---|
D|--------6~~--|--8-11-8-11-8-11-11-------|
A|-------------|--------------------------|
E|-------------|--------------------------|
00:00 / 00:00
Outros vídeos desta música
Repetir
Outros vídeos desta música
14.554 exibições
    • ½ Tom
    • A
    • Bb
    • B
    • C
    • Db
    • D
    • Eb
    • E
    • F
    • F#
    • G
    • Ab
  • Adicionar à lista

Afinação da cifra

Afinador online

    0 comentários

    Ver todos os comentários

    Entre para o Cifra Club PRO

    Tenha acesso a benefícios exclusivos no App e no Site

    • Chega de anúncios

    • Mais recursos no app do Afinador

    • Atendimento Prioritário

    • Aumente seu limite de lista

    • Ajude a produzir mais conteúdo

    00:00 / 00:00

    Cifra Club Pro

    Aproveite o Cifra Club com benefícios exclusivos e sem anúncios
    Cifra Club Pro
    Aproveite o Cifra Club com benefícios exclusivos e sem anúncios
    OK