Cifra Club

Minha Mina

Armandinho

Cifra: Principal (violão e guitarra)
tom: F
E|-----------------------------------------------------------------|
B|-----------------------------------------------------------------|
G|---7-7----------7-----7-7-------------7-7----------7--------7--7-|
D|-------7-9-7-9-------7----7-9-7-9---------7-9-7-9---------7------|
A|-----------------------------------------------------------------|
E|-----------------------------------------------------------------|

Am                              Dm
Preciso dar um tempo para relaxar
Am                          Dm
Uma boa trilha pra fortalecer
F7M                          E
E ao sentir as ondas do lugar
F7M                         E
Vou deixar rolar e acontecer

             Am
Você é minha mina
             Dm 
Você é minha história
             F       E
Não quero ir embora
            Am
Me leva com você

             Am
Você é minha mina
             Dm 
Você que me namora
             F       E
Não quero ir embora
            Am
Me leva com você

Am                               Dm
Só você me entende quando eu fico só
Am                                 Dm
E nos meus pensamentos me deixa fluir
F7M                                   E
Há tanto sentimento aqui dentro de nós
F7M                        E
Você faz a paz morar em mim

             Am
Você é minha mina
             Dm
Você é minha história
             F       E
Não quero ir embora
            Am
Me leva com você

E|------5-7-8-7-5---------------------------5-7-8-7-5-------------|
B|-5-7-------------8-5-8-6---6-8-5-----5-7-------------8-5-8-9----|
G|----------------------------------------------------------------|
D|----------------------------------------------------------------|
A|----------------------------------------------------------------|
E|----------------------------------------------------------------|

             Am
Você é minha mina
             Dm
Você que me namora
             F       E
Não quero ir embora
            Am
Me leva com você

E|-------------------|
B|-------------------|
G|---7-7----------7--|
D|-------7-9-7-9-----|
A|-------------------|
E|-------------------|
00:00 / 00:00
Outros vídeos desta música
Repetir
Outros vídeos desta música
Compositor não encontrado.
Colaboração e revisão:
6.893 exibições
    • ½ Tom
    • A
    • Bb
    • B
    • C
    • Db
    • D
    • Eb
    • E
    • F
    • F#
    • G
    • Ab
  • Adicionar à lista

    0 comentários

    Ver todos os comentários

    Conseguiu tocar?

    7 Tocaram 3 Ainda não

    Grave um vídeo tocando Minha Mina e nos envie!

    00:00 / 00:00

    Cifra Club Pro

    Aproveite o Cifra Club com benefícios exclusivos e sem anúncios
    Cifra Club Pro
    Aproveite o Cifra Club com benefícios exclusivos e sem anúncios
    OK