Cifra Club

Com Amor

Asa de Águia

Cifra: Principal (violão e guitarra)
Selo Cifra Club: esta cifra foi revisada para atender aos critérios oficiais da nossa Equipe de Qualidade.
tom: C
Introdução feita pelo teclado:

    C                        Am
E|--------------------------------------------------|
B|--5-5-6-5----5-5-6-5-3-----5-5-6-5----5-5-6-5-3---|
G|--------------------------------------------------|
D|--------------------------------------------------|
A|--------------------------------------------------|
E|--------------------------------------------------|

    F                       G
E|-------------------------------|
B|--5-5-6-5----5-5-6-5-3----3~---|
G|-------------------------------|
D|-------------------------------|
A|-------------------------------|
E|-------------------------------|

Solo:
   C                                    Am
E|------------------------------------|----------------------------------------|
B|-8-8-8-8-8-8-10-8--8-8-8-8-8-8-10-8-|-10-10-10-10-10-8----10-10-10-10-10-8---|
G|------------------------------------|------------------9-------------------9-|2X
D|------------------------------------|----------------------------------------|
A|------------------------------------|----------------------------------------|
E|------------------------------------|----------------------------------------|
       C                                    Am
E|10-8------------------ -----------------|----------------------------------------|
B|-----8-8-8-8-8-8-10-8--8-8-8-8-8-8-10-8-|-10-10-10-10-10-8----10-10-10-10-10-8---|
G|----------------------- ----------------|------------------9-------------------9-|2X
D|------------------------ ---------------|----------------------------------------|
A|------------------------- --------------|----------------------------------------|
E|-------------------------- -------------|----------------------------------------|
  
      C
Eu só sei viver 
Eu só sei transar 
     Am
Com amor, com amor 
       C
Quero ser feliz 
Quero namorar 
     Am
Com amor, com amor 
     C
Se você quiser 
Eu vou te ganhar 
     Am
Com amor, com amor 
      C
Você vai sorrir 
E fazer amor 
      Am
Com amor, com amor 

Dm
Ah!
       Em                  F 
A cada dia que eu te encontrar 
       G
No paraíso
           Dm  
Você vai viver 
           Em      F
Já não consigo evitar
        G                  E7
Fica comigo agora é pra valer
 

SOLO: "Teclado":  C Am C Am...
   
    C                        Am
E|--------------------------------------------------|
B|--5-5-6-5----5-5-6-5-3-----5-5-6-5----5-5-6-5-3---|
G|--------------------------------------------------|
D|--------------------------------------------------|
A|--------------------------------------------------|
E|--------------------------------------------------|
        
      C
Vou te possuir 
Vou te devorar 
     Am
Com amor, com amor 
       C
Eu só vou fazer 
Se você fizer 
      Am
Com amor, com amor...

SOLO
Outros vídeos desta música
71.847 exibições
    • ½ Tom
    • A
    • Bb
    • B
    • C
    • Db
    • D
    • Eb
    • E
    • F
    • F#
    • G
    • Ab
  • Adicionar à lista

Afinação da cifra

Afinador online

    0 comentários

    Ver todos os comentários

    Entre para o Cifra Club PRO

    Tenha acesso a benefícios exclusivos no App e no Site

    • Chega de anúncios

    • Mais recursos no app do Afinador

    • Atendimento Prioritário

    • Aumente seu limite de lista

    • Ajude a produzir mais conteúdo

    Cifra Club Pro

    Aproveite o Cifra Club com benefícios exclusivos e sem anúncios
    Cifra Club Pro
    Aproveite o Cifra Club com benefícios exclusivos e sem anúncios
    OK