Cifra Club

Quebra Aê

Asa de Águia

Cifra: Principal (violão e guitarra)
Selo Cifra Club: esta cifra foi revisada para atender aos critérios oficiais da nossa Equipe de Qualidade.
tom: Db
INTRO: C#, F#

SOLINHO QUE ACOMPANHA A BASE  (REPETE 2 VEZES)
e||----------6--9-6-4---------------------------------------------------||
B||--9-9-7-6-------------9-9-7-6-7-6-2-4-6------9-8-14-13---------------||
G||---------------------------------------------------------------------||
D||---------------------------------------------------------------------||
A||---------------------------------------------------------------------||
E||---------------------------------------------------------------------||

C#        F#            C#
Eu vou arrasar me decidir
       F#                C# F#
vou me jogar por essa vida...
C#          F#           C#
Quero te ganhar te possuir
       F#             C# F#
te namorar vida bandida...


C#          F#           C#       F#
Tem Babado lá, Chiclete aê, Ivete cá,
           C#             F#                 C#    F#
Olodum no Pelô, Dodô e Osmar, Timbalada no gueto
C#        F#           C#
Vamos decolar nesse avião,
         F#          C#          F#         C#   F# G#  (G# A A#m)
sentir o fogo do dragão, o maior trio do planeta... 


A#m               G#                  (G# A A#m)
Faço tudo pra te dar meu grande amor,
A#m            G#           (G# G F#)
sacudir toda poeira do porão
F#               G#     (G# G F#)
balancei a corda bamba, 
F#              G# G#7   C#
pendurei no bibelô...

C#               F#
Quebra aê, quebra aê olha o ASA aê (x7)
C#               F#   G#
Quebra aê, quebra aê

C#          F#           C#       F#
Tem Babado lá, Chiclete aê, Ivete cá,
           C#             F#                 C#    F#
Olodum no Pelô, Dodô e Osmar, Timbalada no gueto
C#        F#           C#
Vamos decolar nesse avião,
         F#          C#          F#         C#   F# G#  (G# A A#m)
sentir o fogo do dragão, o maior trio do planeta... 

A#m               G#                  (G# A A#m)
Faço tudo pra te dar meu grande amor,
A#m            G#           (G# G F#)
sacudir toda poeira do porão
F#               G#     (G# G F#)
balancei a corda bamba, 
F#              G# G#7   C#
pendurei no bibelô...

C#               F#
Quebra aê, quebra aê olha o ASA aê (x7)
C#               F#   G#
Quebra aê, quebra aê

        A#m            F# G#            A#m
o ASA chegou, o ASA bombou, o ASA voou,
      F# G#      A#m
o ASA pirou...O Asa agitou
            F#
Por isso eu digo que meu coração
G#            G#7  ( C# )
É ASA é ASA é ASA

C#               F#
Quebra aê, quebra aê olha o ASA aê (x7)
C#               F#   G#
Quebra aê, quebra aê

C#, F#
                            (2 VEZES)
e||----------6--9-6-4---------------------------------------------------||
B||--9-9-7-6-------------9-9-7-6-7-6-2-4-6-----9-8-14-13----------------||
G||---------------------------------------------------------------------||
D||---------------------------------------------------------------------||
A||---------------------------------------------------------------------||
E||---------------------------------------------------------------------||
Outros vídeos desta música
65.079 exibições
    • ½ Tom
    • A
    • Bb
    • B
    • C
    • Db
    • D
    • Eb
    • E
    • F
    • F#
    • G
    • Ab
  • Adicionar à lista

Afinação da cifra

Afinador online

    0 comentários

    Ver todos os comentários

    Entre para o Cifra Club PRO

    Tenha acesso a benefícios exclusivos no App e no Site

    • Chega de anúncios

    • Mais recursos no app do Afinador

    • Atendimento Prioritário

    • Aumente seu limite de lista

    • Ajude a produzir mais conteúdo

    Cifra Club Pro

    Aproveite o Cifra Club com benefícios exclusivos e sem anúncios
    Cifra Club Pro
    Aproveite o Cifra Club com benefícios exclusivos e sem anúncios
    OK