Cifra Club

Neverland

Avantasia

Cifra: Principal (violão e guitarra)
Selo Cifra Club: esta cifra foi revisada para atender aos critérios oficiais da nossa Equipe de Qualidade.
tom: E
:INTRO:

Lead Guitar

Excuse any wrong in the tab. For the record, I'm not sure about some parts 
at the end of the intro and in the verse, but I'm pretty sure the rest of it 
is quite accurate... including the solo. On a side not, this gives you the 
notes and the chords to play, but I neglected to label any slides, bends, 
palm mutes, or any such devices. You know the song, you'll figure it out.

E||------------------0--|--0--1-----0------------|------------------0--|--5--0--3--0--1--3------|--0------------1-----|
B||--5------------3-----|------------------3-----|--1------------1-----|------------------------|---------------------|
G||---------------------|------------------------|---------------------|------------------------|---------------------|
D||---------------------|------------------------|---------------------|------------------------|---------------------|
A||---------------------|------------------------|---------------------|------------------------|---------------------|
E||---------------------|------------------------|---------------------|------------------------|---------------------|

--3------1------0-----|--0------1-0----------|--------------------------|--0---------------0--|--0--1-----0------------|
----------------------|-------------3--------|--0--0--1--1--3--3--1--1--|---------------3-----|------------------3-----|
----------------------|----------------------|--------------------------|---------------------|------------------------|
----------------------|----------------------|--------------------------|---------------------|------------------------|
----------------------|----------------------|--------------------------|---------------------|------------------------|
----------------------|----------------------|--------------------------|---------------------|------------------------|

------------------0--|--5--0--3--0--1--3------|--0------------1-----|--3------1------0-----|--0------1-0----------|
--1------------1-----|------------------------|---------------------|----------------------|-------------3--------|
---------------------|------------------------|---------------------|----------------------|----------------------|
---------------------|------------------------|---------------------|----------------------|----------------------|
---------------------|------------------------|---------------------|----------------------|----------------------|
---------------------|------------------------|---------------------|----------------------|----------------------|

--------------------------|----------------------|----------------------|----------------------|
--0--0--1--1--3--3--1--1--|----------------------|----------------------|----------------------|
--------------------------|---------0------2-----|--3------2------0-----|---------0------------|
--------------------------|--3-------------------|----------------------|--3-------------3-----|
--------------------------|----------------------|----------------------|----------------------|
--------------------------|----------------------|----------------------|----------------------|

------------------------|-------------------|
------------------------|-------------------|
------------2--0--------|-------------------|
--2--2------------3--2--|--0----------------|
------------------------|-------------------|
------------------------|-------------------|

Rhythm Guitar

E||-------------------|-------------------|-------------------|
B||-------------------|-------------------|-------------------|
G||-------------------|-------------------|-------------------|
D||--2----------------|-------------------|--5----------------|
A||--0----------------|--3----------------|--3----------------|
E||-------------------|--1----------------|-------------------|

-------------------|--------------------------|-------------------|-------------------|
-------------------|--------------------------|-------------------|-------------------|
-------------------|--------------------------|-------------------|-------------------|
-------------------|--------------0--0--------|--2----------------|-------------------|
--5----------------|--2--2--3--3--------3--3--|--0----------------|--3----------------|
--3----------------|--------------------------|-------------------|--1----------------|

-------------------|-------------------|--------------------------|
-------------------|-------------------|--------------------------|
-------------------|-------------------|--------------------------|
--5----------------|-------------------|--------------0--0--------|
--3----------------|--5----------------|--2--2--3--3--------3--3--|
-------------------|--3----------------|--------------------------|

----------------------|----------------------|----------------------|--------------------|-------------------|
----------------------|----------------------|----------------------|--------------------|-------------------|
----------------2-----|--3------2------------|----------------------|--------------------|--2----------------|
--3------5------0-----|--1------0------5-----|--3------5------3-----|--2--2--------------|--0----------------|
--1------3------------|----------------3-----|--1------3------1-----|--0--0--------------|-------------------|
----------------------|----------------------|----------------------|--------------------|-------------------|

:VERSE-A: The first verse begins with a bass guitar part that doesn't appear 
in the next verse. The lead up to the verse is written into the Lead/Rhythm 
parts above. Listen to the song, you'll know exactly what I'm getting at. 
Anyway, do yourself a favour and get the Bass Tab for the song as well, it 
should be available. This song WILL SUCK without bass.

:VERSE-B:

Rhythm Guitar

-------------------|-------------------|-------------------|-------------------|
-------------------|-------------------|-------------------|-------------------|
--2----------------|--5----------------|-------------------|--2----------------|
--0----------------|--3----------------|--5----------------|--0----------------|
-------------------|-------------------|--3----------------|-------------------|
-------------------|-------------------|-------------------|-------------------|

-------------------|-------------------|-------------------|-------------------|
-------------------|-------------------|-------------------|-------------------|
-------------------|-------------------|--2----------------|--5----------------|
--3----------------|--5----------------|--0----------------|--3----------------|
--1----------------|--3----------------|-------------------|-------------------|
-------------------|-------------------|-------------------|-------------------|

-------------------|-------------------|-------------------|-------------------|----------------------|
-------------------|-------------------|-------------------|-------------------|----------------------|
-------------------|-------------------|--2----------------|-------------------|----------2--0--------|
--5----------------|--3----------------|--0----------------|--5----------------|----------------3--2--|
--3----------------|--1----------------|-------------------|--3----------------|----------------------|
-------------------|-------------------|-------------------|-------------------|----------------------|

:BRIDGE: As you can hear in the song, the bass does a few classy runs up and 
down the scale. I couldn't really figure out what it did, so I winged it, 
but if someone can help me out with it (because I know it's not right, it's 
not really even in tune)... 'cause you know, bass is really important in 
this particular song. In any song! The earth needs more bass tabs! Anyway, 
go get that Bass Tab, fool.

Rhythm Guitar

----------------------|----------------------|
----------------------|--3--3----3--3--------|
--2--2----2--2--------|--0--0----0--0--------|
--0--0----0--0--------|----------------------|
----------------------|----------------------|
----------------------|----------------------|

----------------------|
----------------------|
----------------------|
--5--5----5--5--------|
--3--3----3--3--------|
----------------------|

--------------------------|--------------------------|--------------------------|--------------------|
--------------------------|--------------------------|--------------------------|--------------------|
--------------------------|--------------------------|--------------------------|--------------------|
--------------------------|--------------------------|--------------------------|--------------------|
--0--0--0--0--0--0--0--0--|--0--0--0--0--0--0--0--0--|--1--1--1--1--1--1--1--1--|--3-----------------|
--------------------------|--------------------------|--------------------------|--------------------|

:CHORUS:

Rhythm Guitar

-------------------|-------------------|-------------------|
-------------------|-------------------|-------------------|
--2----------------|--5----------------|-------------------|
--0----------------|--3----------------|--5----------------|
-------------------|-------------------|--3----------------|
-------------------|-------------------|-------------------|

-------------------|---------------------|-------------------|-------------------|
-------------------|---------------------|-------------------|-------------------|
-------------------|---------------------|--2----------------|--5----------------|
--3----------------|--3--------5---------|--0----------------|--3----------------|
--1----------------|--1--------3---------|-------------------|-------------------|
-------------------|---------------------|-------------------|-------------------|

-------------------|-------------------|--------------------|
-------------------|-------------------|--------------------|
-------------------|-------------------|--------------------|
--5----------------|--3----------------|--3--------5--------|
--3----------------|--1----------------|--1--------3--------|
-------------------|-------------------|--------------------|

:SOLO: I tabbed it for two guitars, but I'm 90% certain it's only one guitar 
and a bass playing. Regardless, this allows you to split it into two parts, 
if you have two guitarists, or if you have one, just play the palm mutes and 
the lead part. Please note, it's not 100% accurate, but it's very close! I 
doubt anyone would notice if you play this solo...

Lead Guitar

--------------------|-----------------------|--------------------|--------------------------|--------------------|
--------------------|-----------------------|--------------------|--------------------------|--------------------|
------0------2------|--3----2----0----2--0--|------0------2------|--3--2--0--3--0--2--0-----|-------------0------|
--------------------|-----------------------|--------------------|-----------------------3--|------3-------------|
--------------------|-----------------------|--------------------|--------------------------|--------------------|
--------------------|-----------------------|--------------------|--------------------------|--------------------|

-----------------------|--------------------|--------------------------|--------------------|-----------------------|
-----------------------|--------------------|--------------------------|--------------------|-----------------------|
--2----0---------0-----|-------------0------|--2--0-----0-----0--------|--------------------|-----------------------|
------------3-------3--|------3-------------|--------3-----3-----3--2--|------0------2------|--3----2----0----2--0--|
-----------------------|--------------------|--------------------------|--------------------|-----------------------|
-----------------------|--------------------|--------------------------|--------------------|-----------------------|

--------------------|--------------------------|--------------------|----------------------|--------------------|
--------------------|--------------------------|--------------------|----------------------|--------------------|
--------------------|--------------------------|------0------2------|--3------2------3--2--|------0------2------|
------0------2------|--3--2--0--3--2--0--2--3--|--------------------|----------------------|--------------------|
--------------------|--------------------------|--------------------|----------------------|--------------------|
--------------------|--------------------------|--------------------|----------------------|--------------------|

--------------6-----------|--------------------|-----------------------|--------------------|-----------------------|
-----------3-----6--------|--------------------|-----------------------|--------------------|--1--------------------|
-----0--3-----------7-----|--------------------|--5----3----2----3--2--|------2------3------|-------3----2----2--0--|
--0--------------------8--|------7------8------|-----------------------|--------------------|-----------------------|
--------------------------|--------------------|-----------------------|--------------------|-----------------------|
--------------------------|--------------------|-----------------------|--------------------|-----------------------|

--------------------|-----------------------|--------------------|--------------------------|--------------------|
--------------------|-----------------------|--------------------|--------------------------|--------------------|
-------------0------|--2----0---------0-----|-------------0------|--------------2--0--------|--------------------|
------3-------------|------------3-------3--|------3-------------|--0--2--3--2--------3--2--|------0------2------|
--------------------|-----------------------|--------------------|--------------------------|--------------------|
--------------------|-----------------------|--------------------|--------------------------|--------------------|

-----------------------|--------------------|-----------------------|--------------------|---------------------|
-----------------------|--------------------|-----------------------|--------------------|---------------------|
-----------------------|--------------------|-----------------------|--------------------|--0------------------|
--3----2----0----2--0--|------0------2------|--3----2----0----2--0--|------2------3------|---------3------2----|
-----------------------|--------------------|-----------------------|--------------------|---------------------|
-----------------------|--------------------|-----------------------|--------------------|---------------------|

--------------------|--------------------------|-------------------|
--------------------|--------------------------|-------------------|
--------------------|--0-----------------------|-------------------|
------2------3------|-----3--2--0--3--2--0-----|--0----------------|
--------------------|-----------------------3--|-------------------|
--------------------|--------------------------|-------------------|

Rhythm Guitar

------------------------|------------------------|------------------------|------------------------|
------------------------|------------------------|------------------------|------------------------|
------------------------|------------------------|------------------------|------------------------|
------------------------|------------------------|------------------------|------------------------|
------------------------|------------------------|------------------------|------------------------|
--3--3----3--3----3--3--|----3----3--3--3--3--3--|--3--3----3--3----3--3--|----3--3----3--3--3--3--|

------------------------|------------------------|------------------------|------------------------|
------------------------|------------------------|------------------------|------------------------|
------------------------|------------------------|------------------------|------------------------|
--0--0----0--0----0--0--|----0----0--0--0--0--0--|--0--0----0--0----0--0--|----0--0----0--0--0--0--|
------------------------|------------------------|------------------------|------------------------|
------------------------|------------------------|------------------------|------------------------|

------------------------|------------------------|------------------------|------------------------|
------------------------|------------------------|------------------------|------------------------|
------------------------|------------------------|------------------------|------------------------|
------------------------|------------------------|------------------------|------------------------|
--1--1----1--1----1--1--|----1----1--1--1--1--1--|--1--1----1--1----1--1--|----1--1----1--1--1--1--|
------------------------|------------------------|------------------------|------------------------|

------------------------|------------------------|------------------------|------------------------|
------------------------|------------------------|------------------------|------------------------|
--0--0----0--0----0--0--|----0--0----0--0--0--0--|--0--0----0--0----0--0--|----0--0----0--0--0--0--|
------------------------|------------------------|------------------------|------------------------|
------------------------|------------------------|------------------------|------------------------|
------------------------|------------------------|------------------------|------------------------|

------------------------|------------------------|------------------------|------------------------|
------------------------|------------------------|------------------------|------------------------|
------------------------|------------------------|------------------------|------------------------|
--3--3----3--3----3--3--|----3----3--3--3--3--3--|--3--3----3--3----3--3--|----2----2--2--2--2--2--|
------------------------|------------------------|------------------------|------------------------|
------------------------|------------------------|------------------------|------------------------|

------------------------|------------------------|------------------------|------------------------|
------------------------|------------------------|------------------------|------------------------|
------------------------|------------------------|------------------------|------------------------|
--0--0----0--0----0--0--|----0----0--0--0--0--0--|--0--0----0--0----0--0--|----0--0----0--0--0--0--|
------------------------|------------------------|------------------------|------------------------|
------------------------|------------------------|------------------------|------------------------|

------------------------|------------------------|------------------------|------------------------|
------------------------|------------------------|------------------------|------------------------|
------------------------|------------------------|------------------------|------------------------|
------------------------|------------------------|------------------------|------------------------|
--1--1----1--1----1--1--|----1----1--1--1--1--1--|--1--1----1--1----1--1--|----1----1--1--1--1--1--|
------------------------|------------------------|------------------------|------------------------|

------------------------|------------------------|------------------------|------------------------|
------------------------|------------------------|------------------------|------------------------|
------------------------|------------------------|------------------------|------------------------|
--2--2----2--2----2--2--|----2--2----2--2--2--2--|--2--2----2--2----2--2--|----2--2----2--2--2--2--|
------------------------|------------------------|------------------------|------------------------|
------------------------|------------------------|------------------------|------------------------|

:FUNKY PART BETWEEN THE SOLO AND LAST CHORUS:

-------------------|
--2----------------|
--0----------------|
-------------------|
-------------------|

-------------------|-------------------|-------------------|-------------------|-------------------|-------------------|
-------------------|-------------------|-------------------|-------------------|-------------------|-------------------|
-------------------|-------------------|-------------------|--2----------------|-------------------|-------------------|
--5----------------|--3----------------|--5----------------|--0----------------|--5----------------|--3----------------|
--3----------------|--1----------------|--3----------------|-------------------|--3----------------|--1----------------|
-------------------|-------------------|-------------------|-------------------|-------------------|-------------------|

--------------------|
--------------------|
--------------------|
--5-----------------|
--3-----------------|
--------------------|

:SPECIAL LEAD PART: Just for the hell of it, I tabbed out the "whoa-oh-oh" 
thing that Mr. Bishop (Pope? No, I think it was Bishop...)does for the 
guitar, just in case your lead guitarist gets bored during the last chorus 
after his/her glorious solo.

-----------1--------|--0-----------------|
--------------------|-----------1--------|
--------------------|--------------------|
--------------------|--------------------|
--------------------|--------------------|
--------------------|--------------------|



------------1--------|--0-----------------|------------1--------|--0-----------------|--3--------1--------|
---------------------|-----------1--------|---------------------|-----------1--------|--------------------|
--2------------------|--------------------|--0------------------|--------------------|--------------------|
---------------------|--------------------|---------------------|--------------------|--------------------|
---------------------|--------------------|---------------------|--------------------|--------------------|
---------------------|--------------------|---------------------|--------------------|--------------------|



--0-----------------|---------------------|
-----------1--------|---------------------|
--------------------|--2------------------|
--------------------|---------------------|
--------------------|---------------------|
--------------------|---------------------|

For the record, the order goes:

INTRO
VERSE-A
VERSE-B
BRIDGE
CHORUS
INTRO
VERSE-B
BRIDGE
CHORUS
SOLO
FUNKY PART BETWEEN THE SOLO AND LAST CHORUS
CHORUS (for eternity)


------------------------------------------------------------------------------------------

Avantasia

neverland
from album: the metal opera pt2.

Transcribed By: Joni Fred

(Suomi-Finland-Perkele!!)

PLEASE DO NOT COPY THIS TAB TO ANOTHER SITE 
WITHOUT AUTHORS' PERMISSION.  THANK YOU.
         

I play it in E tune

main fiff 

guitar2
|-------------------------------------------------------------------------------|
|-------------------------------------------------------------------------------|
|---6----------------9----------------4----------2------------------------------|
|---6----------------9----------------4----------2------------------------------|
|---4----------------7----------------2----------0---------------000222444555---|
|-------------------------------------------------------------------------------|

guitar1
|----------5---------------------------------------------h-p---------------------|
|---5^^--78---87------3^------12-10-8-10-7^^-8\12^^--108-81087^^-555777888101010-|
|--------------------------------------------------------------------------------|
|--------------------------------------------------------------------------------|
|--------------------------------------------------------------------------------|
|--------------------------------------------------------------------------------|

|--------5---------------5-3-2------------------|
|--5-7-8---8-7-5-7-5-33-------3-5^^-------------|
|-----------------------------------------------|
|--------4---------------4-2--------------------|
|--4-6-7---7-6-4-6-4-22------52-4^^-------------|
|-----------------------------------------------|



bass before
listen record
    3
|---------------------------------------------|
|---------------------------------------------|
|--444--444---777--------444-444-000-222------|
|------------------777------------------------|

verse riff

|-----------------------|
|-----------------------|
|--6---9-------6--------|
|--6---9--9----6--7--9--|
|--4---7--9----4--7--9--|
|---------7-------5--7--|


pre-chorus

|------------------------------------------------------|
|------------------------------------------------------|
|-----------6---6-----4---4-------------------9--------|
|--6---6----6---6-----4---4-------------------9--------|
|--6---6----444--^^---222--^^---222222444444--7--------|
|--444--^^---------------------------------------------|

chorus

|--------------------|
|--------------------|
|--------------------|
|--------------------|
|--6--9--4--2-2-4----|
|--4--7--2--0-0-2----|
|--------------------|

middle part

|------------------------------------------------------------|
|------------------------------------------------------------|
|------------------------------------------------------------|
|------7---9--10-979h7------7---9--10-979h7--109797----7-----|
|--777---7--7-----------777---7--7------------------10---109-|
|------------------------------------------------------------|


|------------------------------------------------------------|
|------------------------------------------------------------|
|------------------------------------------------------------|
|-----4---6---7-646h4-----4---6---7-646h4-76464-4------------|
|-444---4---4---------444---4---4--------------7--76---------|
|------------------------------------------------------------|

|------------------------------------------------------------|
|------------------------------------------------------------|
|------------------------------------------------------------|
|-----2---4---5-424h2-----2---4---5-424h2-5424-2---2---------|
|-000---0---0---------000---0---0----------------5---54------|
|------------------------------------------------------------|

|------------------------------------------------------------|
|------------------------------------------------------------|
|--------------------------------------2-4-2-----------------|
|-----2---4---5-424h2-----2---4--2-4-5-------5-4-------------|
|-222---2---2---------222---2--------------------------------|
|------------------------------------------------------------|

|-----------------------------------------------------------------------------------------|
|-----------------------------------------------------------------------------------------|
|-----------------------------------------------------------------------------------------|
|----------------------------------------------------------------------------------7-9----|
|-----7---9---10-979h7-----7---9---10-979h7------5---7---9-757h5-----5---7---7-9-10-------|
|-777---7---7----------777---7---7-----------555---5---7---------555---5------------------|

|-----------------------------------------------------------------------------------------|
|-----------------------------------------------------------------------------------------|
|-----------------------------------------------------------------------------------------|
|-----------------------------------------------------------------------------------------|
|-----2---4---5-424h2-----2---4---5-424h2--------5---7---9---7-----5---7--9-7-5-7-5-------|
|-222---2---2---------222---2---2------------777---7---7---7---777---7--------------9-7---|


before outro

|------------------------|
|------------------------|
|------------------------|
|--6-4-2-4-6-4-2-4-------|
|--4-2-0-2-4-2-0-2-------|
|------------------------|


outro chorus

|------------------------------|
|------------------------------|
|--9---12--7--5----5--7--------|
|--9---12--7--5----5--7--------|
|--7---10--5--3----3--5--------|
|------------------------------|
Outros vídeos desta música
    6.971 exibições
      • ½ Tom
      • A
      • Bb
      • B
      • C
      • Db
      • D
      • Eb
      • E
      • F
      • F#
      • G
      • Ab
    • Adicionar à lista

    Afinação da cifra

    Afinador online

      0 comentários

      Ver todos os comentários

      Entre para o Cifra Club PRO

      Tenha acesso a benefícios exclusivos no App e no Site

      • Chega de anúncios

      • Badges exclusivas

      • Mais recursos no app do Afinador

      • Atendimento Prioritário

      • Aumente seu limite de lista

      • Ajude a produzir mais conteúdo

      Cifra Club Pro

      Aproveite o Cifra Club com benefícios exclusivos e sem anúncios
      Cifra Club Pro
      Aproveite o Cifra Club com benefícios exclusivos e sem anúncios
      Ops (: Contenido disponible sólo en portugués.
      OK