Cifra Club

Seven Angles

Avantasia

Cifra: Principal (violão e guitarra)
tom: A
Tune down 1/2 step!!!

                Intro/Riff 1
E-------------|-------------------------------------------------/5~----------/5|
B-------------|-------------------------------------------------/5~----------/5|
G--Orchestra--|------------------------------------------/9~----/5~---/9~----/5|
D---w/-Bass---|-/6----------------6-6--6-----------------/9~----------/9~------|
A---&-Drums---|-/4-4-4--7-7--9-9--4-4--4-4-4--7-7--9-9---/7~----------/7~------|
E-------------|---------5-5--7-7--------------5-5--7-7-------------------------|
                  pm..|                     pm..|

E----------------------------------------------------------------5~------5~----|
B----------------------------------------------------------------5~------5~----|
G--------------------------------------------------------8---9~--5~--9~--5~----|
D-----\6-------------------------------------------9---------9~------9~--------|
A-x\--\4-4-4-4-4-4-4-4-4-4-4-4-4-4-----------------9---9-----7~------7~------x\|
E-x\-------------------------------4-4-4-4-4-4-4-6-7-7-------------------------|
        pm........................................|
                                                                       Verse
E--------------------------------------------------------------------|------4--|
B--------------------------------------------------------------------|------4--|
G----------------------------------------------------8--6~----6~-----|------4--|
D-6-----------------------------------------------------6~----6~-----|-6~---6--|
A-4-4-4-4-4-4-4-4-4-4-4-4-4-4--6-----6---------9---9----4~----4~--x\-|-6~---6--|
E------------------------------4-4-4-4-4-4-4-6-7-7------------4~--x\-|-4~---4--|
   pm.......................|   pm..|  pm.....|

E------------------------------------------------------------------------------|
B------------------------------------------------------------------------------|
G---------------------------------------4--------------------------------------|
D---------------------/4-4~---4---6---6-4-/6~---6----------------------/4-4~---|
A---------------------/4-4~---4---6---6-2-/6~---6----------------------/4-4~---|
E-2h4~-muted----12\\--/2-2~---2---4---4---/4~---4---2h4~muted----12\\--/2-2~---|

            Bridge                                               Chorus
E---------|----------------------------------------------------|---------------|
B---------|----------------------------------------------------|---------------|
G---------|----------------------------------------------------|-------9-------|
D-4---6~--|-/6-6-------6-6----------4-----4---/6--8------------|-------9-------|
A-4---6~--|-/4-4--6~---4-4--6~---2--2--2--2---/4--6--2--7--6~--|-/7-9--7--7-9~-|
E-2---4~--|-------4~--------4~---0-----0-------------0--5--4~--|-/5-7-----5-7~-|

E------------------------------------------------------------------------------|
B------------------------------------------------------------------------------|
G----------4---6~-------------------9-----------------4---6~-------------------|
D-6--7--2--4---6~--------------9----9--------6--7--2--4---6~--------------2~---|
A-4--7--2--2---4~--7-9~--7--9--7--9-7--7-9~--4--7--2--2---4~--7-9~--7--9--2~---|
E----5--0----------5-7~--5--7-----7----5-7~-----5--0----------5-7~--5--7--0~---|

  Fill 1                                                 Fill 2   Riff 2
E--------|---------|----------|----------|--------|----------------------------|
B--------|---------|----------|----------|--------|----------------------------|
G--------|--Verse--|--Bridge--|--Chorus--|--------|----------------------------|
D--------|---------|----------|----------|--------|-----6-----4-----------4----|
A--2--4--|---------|----------|----------|--A.H.--|-----------------8----------|
E--0--2--|---------|----------|----------|---4~---|-4-4---4-4---4-4---4-4---4-4|
                                                   pm    pm    pm    pm    pm

E------------------------------------------------------------------------------|
B------------------------------------------------------------------------------|
G------------------------------------------------------------------------------|
D-4h6------6-----4-----------4-4--------6-----4-----------4-----4h6-4----------|
A----------------------8---------8------------------8-----------------7-6-4----|
E------4-4---4-4---4-4---4-4--------4-4---4-4---4-4---4-4---4-4-------------7~-|
       pm    pm    pm    pm         pm    pm    pm    pm    pm
  
  First Guitar 1 solo (Two guitar)
E------------------------------------------------------------------------------|
B-/17~-----19b(21)r19~-16-17~----19b(21)r19-17-17~-----17-19hold-b(21)r19~-----|
G-------18--------------------18-------------------/16-------------------------|
D------------------------------------------------------------------------------|
A------------------------------------------------------------------------------|
E------------------------------------------------------------------------------|

  Guitar 2 solo
E------------------------------------------------------------------------------|
B------------------------------------------------------------------------------|
G-/18~--16-20b(21)r20~-16-18~-16-20b(21)r20-18-16~-/16-18-20hold-b(21)r20~-----|
D------------------------------------------------------------------------------|
A------------------------------------------------------------------------------|
E------------------------------------------------------------------------------|

                 Second Guitar 1 solo 
E----------|-------16-14------------------17-16-14-14------------19-17-16-16-17|
B----------|----14-------17-17-14~-----14-------------17~-----17---------------|
G--Repeat--|-13---------------------14---------------------16------------------|
D--riff-2--|-------------------------------------------------------------------|
A----------|-------------------------------------------------------------------|
E----------|-------------------------------------------------------------------|
            
E-16----------------16~---------16h21~--|--------------------------------------|
B----19~-17~-----17----------17---------|--------------------------------------|
G-------------18----------18------------|-------------Orchestra----------------|
D-----------18--------------------------|--------------------------------------|
A---------------------------------------|--------------------------------------|
E---------------------------------------|--------------------------------------|

  Guitar 2 solo
E-------12-11------------------12-11------------------16-14-------14-----------|
B----14-------14-14---------14-------14-14---------17-------17-17----17-16~-14~|
G-13----------------13~--13----------------14~--16-----------------------------|
D------------------------------------------------------------------------------|
A------------------------------------------------------------------------------|
E------------------------------------------------------------------------------|

E----------12~----------12h16~-|-----------------------------------------------|
B-------14-----------14--------|-----------------------------------------------|
G----13-----------13-----------|----------------Orchestra----------------------|
D-14---------------------------|-----------------------------------------------|
A------------------------------|-----------------------------------------------|
E------------------------------|-----------------------------------------------|

  Riff 3           2x   Riff 4             2x   Riff 5
E---------------------|-----------------------|--------------------------------|
B---------------------|-----------------------|--------------------------------|
G*-------------------*|*---------------------*|*-------------------------------|
D*-/6------6--9~--7~-*|*-/6~------6~--9~--7~-*|*-/6---------9--7--6------------|
A--/4--7~--4--7~--5~--|--/4~--7~--4~--7~--5~--|--/4----7----7--5--4----7----9--|
E------5~-------------|-------5~--------------|--------5---------------5----7--|
       
   2x   Fill 3       Guitar Solo 3
E-----|------------|-----------------------------------------------------------|
B-----|------------|--------------------17-17----17b(19)r17~--------19-19------|
G----*|------------|--------16-16-----------------------------16-16--------16--|
D----*|--/6--\4-6--|-/14-14-------14-14-------14-------------------------------|
A-7---|--/4--\2-4--|-----------------------------------------------------------|
E-5---|------------|-----------------------------------------------------------|

E----------------------------------------------19-------19b(21)-19b(21)-19b(21)|
B----21-21----21b(23)r22~----17-19-21-17-19-21----19-21----------.-------.-----|
G-16-------16------------/20---------------------------------------------------|
D------------------------------------------------------------------------------|
A------------------------------------------------------------------------------|
E------------------------------------------------------------------------------|

E-r-19-19~-17h19b(21)r19-19~-----------------16----17b(19)-b(19)-b(19)-19-19-17|
B--------------------------------17----19--------------------------------------|
G----------------------------/16----16----16----16-----------------------------|
D------------------------------------------------------------------------------|
A------------------------------------------------------------------------------|
E------------------------------------------------------------------------------|

E-17---------------------------------------------------------------------------|
B----19-19~-17-17~-16-16~------------------------------------------------------|
G-------------------------18-18~-16~--------------------------------14-16----14|
D----------------------------------------------14-16-18----14-16-18-------18---|
A------------------------------------/14-16-18----------18---------------------|
E------------------------------------------------------------------------------|

E-----------------------------16-17----16-17-19-17-16----------------------16--|
B-------------------16-17-19--------19----------------19-17-16-17-19-17-16-----|
G-16-18----14-16-18------------------------------------------------------------|
D-------18---------------------------------------------------------------------|
A------------------------------------------------------------------------------|
E------------------------------------------------------------------------------|

E-17b(19)-b(19)-b(19)-b(19)r17-16~--14h16p14----------------------|------------|
B--------------------------------------------16~--16b(17)r16-14~--|------------|
G-----------------------------------------------------------------|---Piano----|
D-----------------------------------------------------------------|------------|
A-----------------------------------------------------------------|------------|
E-----------------------------------------------------------------|------------|
  Riff 6
E------------------------------------------------------------------------------|
B--------------w/-overdrive----------------------------------------------------|
G------------------------------------------------------------------------------|
D-/9------------6-7-9-7-6----\6--------------------------------------------/2--|
A-/7----------------------7--\4-4-4-4-4-4-4-4-4-4-4-\6---------------------/0-0|
E---------------------------------------------------\4-4-4-4-4-4-4-4-4-4-4-----|

                pm..........|   pm................|   pm................|   pm

E------------------------------------------------------------------------------|
B------------------------------------------------------------------w/overdrive-|
G------------------------------------------------------------------------------|
D---------/4--------------/9----------------------------------------6-7-9-7-6--|
A-0-0-0-0-/2-2-2-2-2-2-2--/7-7-7-7-7-7-7-7-7-7-7-7-7-7-7-7-7-7-7-7------------7|
E------------------------------------------------------------------------------|
  .......|  pm..........|    pm...............................................|

E------------------------------------------------------------------------------|
B------------------------------------------------------------------------------|
G------------------------------------------------------------------------------|
D-\6------------------------------------------/2-------------/4----------------|
A-\4-4-4-4-4-4-4-4-4-4-\6---------------------/0-0-0-0-0-0-0-/2-2-2-2-2-2-2-2--|
E----------------------\4-4-4-4-4-4-4-4-4-4-4----------------------------------|
    pm................|  pm..................|  pm.........|   pm............|

  Riff 7
E------------------------------------------------------------------------------|
B------------------------------------------------------------------------------|
G------------------------------------------------------------------------------|
D--------7--6--7--6-------------/6--4-------------------7--6--7--6-------------|
A-/7--9--7--7--7--7--7-7-7-7--7-/4--2-2-2-2-2-2-2--7-9--7--7--7--7--7-7-7-7--7-|
E-/5--7-----------------------5--------------------5-7-----------------------5-|
                      pm....|         pm.........|                  pm....|

E----------------------------------------------------------2-------------------|
B------------------------------------------------------------2---2-------------|
G------------------------------------------2-------------------2---------------|
D-/6--4---------------/2--4-----2------4-----4---4-----4------------/4~--------|
A-/4--2-2-2-2-2-2-2---/0--2--6--0----4---4-----4-----4---4----------/2~--------|
E----------------------------4-----2---------------2---------------------------|
       pm.........|                 pm..............................|

  Piano Interlude
E------------------------------------------------------------------------------|
B------------------------------------------------------------------------------|
G-/11-11-11---\9-9-9---\4-4-4------7-/9--/11-11-11---\9-9-9---\4-4-4--/6~------|
D-/11-11-11---\9-9-9---\4-4-4------7-/9--/11-11-11---\9-9-9---\4-4-4--/6~------|
A-/9--9--9---9\7-7-7--7\2-2-2--2-4-5-/7--/9--9--9---9\7-7-7--7\2-2-2--/4~------|
E------------------------------------------------------------------------------|

                Riff 8 until Fade Out
E-------------|-------------------------------------------||
B-------------|-------------------------------------------||
G--Interlude--|*-----------------------------------------*|| end
D--no-guitar--|*--/11---11--\8---\3---/4-------------/6--*||
A-------------|---/9---\8---\6---\1---/2---/4---/6---/4---||
E-------------|----------------------------/2---/4--------||

--------------------------------------------------------------------------------

  Rhythm Guitar During Guitar Solo 1
E-----------------|
B-----------------|
G-/6-------9------|
D-/6---7---9---9--|
A-/4---7---7---9--|
E------5-------7--|
  
  Rhythm Guitar During Guitar Solo 2
E----------------------------|
B----------------------------|
G-/6-------9--------/6---/6--|
D-/6---7---9---9~---/6---/6--|
A-/4---7---7---9~---/4---/4--|
E------5-------7~--------/4--|

  Rhythm Guitar During Guitar Solo 3
E------------------------------------------------------------------------------|
B------------------------------------------------------------------------------|
G------------------------------------------------------------------------------|
D------------------------------------------------------------------------------|
A-/7-7-7-7-7-7-7-7-7-7-7-7-7-7-7-7-7-7-7-7-7-7-\6-6-6-6-6-6-6-6-6-6-6-6-6-6-6-6|
E------------------------------------------------------------------------------|
  pm...........................................................................

E------------------------------------------------------------------------------|
B------------------------------------------------------------------------------|
G------------------------------------------------------------------------------|
D------------------------------------------------------------------------------|
A-6-6-6-6-6-\5-5-5-5-5-5-5-5-5-5-5-5-5-5-5-5-5-5-5-5-5-5-----------------------|
E--------------------------------------------------------/5-5-5-5-5-5-5-5-5-5-5|
  .............................................................................

E------------------------------------------------------------------------------|
B------------------------------------------------------------------------------|
G------------------------------------------------------------------------------|
D------------------------------------------------------------------------------|
A-----------------------------/7-7-7-7-7-7-7-7-7-7-7-7-7-7-7-7-7-7-7-7-7-7-\6-6|
E-5-/7-7-7-7-7-7-7-7-7-7-7-7---------------------------------------------------|
 ..............................................................................

E------------------------------------------------------------------------------|
B------------------------------------------------------------------------------|
G------------------------------------------------------------------------------|
D------------------------------------------------------------------------------|
A-6-6-6-6-6-6-6-6-6-6-6-6-6-6-6-6-6-6-6-6-\5-5-5-5-5-5-5-5-5-5-5-5-5-5-5-5-5-5-|
E------------------------------------------------------------------------------|
 ..............................................................................

E------------------------|
B------------------------|
G------------------------|
D---------/7---/9----/6--|
A-5-5-5-5-/7---/9----/4--|
E---------/5---/7--------|
  .......|

--------------------------------------------------------------------------------

=======================
=TABLATURE EXPLANATION=
=======================

A.H. = Artifical Harmonic

pm..| = Palm mute

h = hammer on

p = pull off

/ = slide up

\ = slide down

~ = vibrato

b( ) = Bend

x\ = Pick Slide

--------
--------
---12--- = Tremolo pick
----/---
----/---
----/---

---.---
--12---
------- = Stacatto
-------
-------

|     |     
|     |
|*   *| = repeat from * to *
|*   *|
|     |
Composição de Tobias Sammet
Colaboração e revisão:
  • Marcio Zavanella
7.191 exibições
    • ½ Tom
    • A
    • Bb
    • B
    • C
    • Db
    • D
    • Eb
    • E
    • F
    • F#
    • G
    • Ab
  • Adicionar à lista

    0 comentários

    Ver todos os comentários

    Conseguiu tocar?

    0 Tocaram 0 Ainda não

    Grave um vídeo tocando Seven Angles e nos envie!

    00:00 / 00:00
    Outros vídeos desta música
    Repetir Qualidade Automático
    Outros vídeos desta música
    00:00 / 00:00
    Automático

    Cifra Club Pro

    Aproveite o Cifra Club com benefícios exclusivos e sem anúncios
    Cifra Club Pro
    Aproveite o Cifra Club com benefícios exclusivos e sem anúncios
    OK