Cifra Club

The Tower

Avantasia

Cifra: Principal (violão e guitarra)
tom: C
    Intro 2x
|----------|------|----------|------|-----------|-----------|----|----|
|----------|-6----|----------|-6----|-----------|-----------|----|----|
|----------|-5-5~-|----------|-5-5~-|--------5~-|--------3~-|-2~-|----|
|-7-----7~-|-3-5~-|-7-----7~-|-3-5~-|-5-5--5-5~-|-3-3--3-3~-|-2~-|----|
|-5-555-5~-|---3~-|-5-555-5~-|---3~-|-3-3--3-3~-|-1-1--1-1~-|-0~-|----|
|----------|------|----------|------|-----------|-----------|----|-5~-|

Canto 1; 2x;

|----------------|-----------------|-----------------|-------------|
|----------------|-----------------|-----------------|-------------|
|----------------|-----------------|-----------------|-------------|
|----------------|-----------------|-----------------|-----9-----9-|
|-7-7--7-7-7-7-7-|-7-7-7-7-7-7-7-7-|-7-7-7-7-7-7-7-7-|-7-7-7-7-7-7-|
|----------------|-----------------|-----------------|-------------|

|----------------|-----------------|----------------|-------------|
|----------------|-----------------|----------------|-------------|
|----------------|-----------------|----------------|-------------|
|----------------|-----------------|----------------|-----4-----4-|
|-3-3--3-3-3-3-3-|-3-3-3-3-3-3-3-3-|-0-0--0-0-0-0-0-|-2-2-2-2-2-2-|
|----------------|-----------------|----------------|-------------|

 (Hallelujah...) 2 x;

|----|-|----|----|---------------|---------------|---------------|
|----|-|----|----|---------------|---------------|---------------|
|----|-|----|----|---------------|---------------|---------------|
|-2~-|-|-2~-|-2~-|---------------|---------------|---------------|
|-2~-|-|-2~-|-2~-|-5555555555555-|-5555555555555-|-5555555555555-|
|-0~-|-|-0~-|-0~-|---------------|---------------|---------------|

|------------------|------------------|-------------------|-------------|
|------------------|------------------|-------------------|-------------|
|------------------|------------------|-------------------|-------------|
|------------------|------------------|-------------------|-------------|
|-5555555555555555-|-1111111111111111-|-11111111-00000000-|-------------|
|------------------|------------------|-------------------|-33333333333-|
                                                   ____
                                                  |2 x
|------------------||----|
|------------------||----|
|------------------||----|
|------------------||-5~-|
|-0000000000000000-||-5~-|
|------------------||-3~-|

Canto 2 ; 
|---------------------|---------------------|---------------------|
|---------------------|---------------------|---------------------|
|---------------------|---------------------|---------------------|
|---------------------|---------------------|---------------------|
|-5-55-5-55-5-55-5-55-|-5-55-5-55-5-55-5-55-|-4-44-4-44-4-44-4-44-|
|---------------------|---------------------|---------------------|

|---------------------|---------------------|---------------------|
|---------------------|---------------------|---------------------|
|---------------------|---------------------|---------------------|
|---------------------|---------------------|---------------------|
|-4-44-4-44-4-44-4-44-|-3-33-3-33-3-33-3-33-|-3-33-3-33-3-33-3-33-|
|---------------------|---------------------|---------------------|

|---------------------|---------------------|---------------------|
|---------------------|---------------------|---------------------|
|---------------------|---------------------|---------------------|
|---------------------|---------------------|---------------------|
|---------------------|---------------------|-1-11-1-11-1-11-1-11-|
|-3-33-3-33-3-33-3-33-|-3-33-3-33-3-33-3-33-|---------------------|

|---------------------|---------------------|---------------------|
|---------------------|---------------------|---------------------|
|---------------------|---------------------|---------------------|
|---------------------|---------------------|---------------------|
|-1-11-1-11-1-11-1-11-|---------------------|---------------------|
|---------------------|-1-11-1-11-1-11-1-11-|-1-11-1-11-1-11-1-11-|

|---------------------|---------------------|---------------------|----|
|---------------------|---------------------|---------------------|----|
|---------------------|---------------------|---------------------|-5~-|
|---------------------|---------------------|---------------------|-5~-|
|-3-33-3-33-3-33-3-33-|-3-33-3-33-3-33-3-33-|-0-00-0-00-0-00-0-00-|-3~-|
|---------------------|---------------------|---------------------|----|

|------------------|------------------|----------------|----------------|
|------------------|------------------|----------------|----------------|
|------------------|------------------|----------------|----------------|
|------------------|------------------|----------------|----------------|
|-5555555555555555-|-4444444444444444-|-33333333333333-|-22222222222222-|
|------------------|------------------|----------------|----------------|

|------------------|------------------|----------------|---------------|---|
|------------------|------------------|----------------|---------------|---|
|------------------|------------------|----------------|---------------|-5-|
|------------------|------------------|----------------|---------------|-5-|
|-1111111111111111-|------------------|-33333333333333-|-0000000000000-|-3-|
|------------------|-1111111111111111-|----------------|---------------|---|

Ponte;

|----|-|------------------|-----------------|
|----|-|------------------|-----------------|
|-5~-|-|------------------|-----------------|
|-5~-|-|-7------7---------|-7------7--------| fazer 2 x;
|-3~-|-|-5-5555-5-5555555-|-5-5555-5-555555-|
|----|-|------------------|-----------------|

|------------------|------------------|------------------|
|------------------|------------------|------------------|
|------------------|------------------|------------------|
|---775577--775577-|---775577--775577-|---553355--553355-|
|-88------88-------|-88------88-------|-33------33-------|
|------------------|------------------|------------------|

|------------------|------------------|------------------|----|---|
|------------------|------------------|------------------|----|---|
|------------------|------------------|------------------|-8~-|-7-|
|---553355--553355-|---553355--553355-|---553355--553355-|-8~-|-7-| Break;
|-33------33-------|-66------66-------|-66------66-------|-6~-|-5-|
|------------------|------------------|------------------|----|---|

Refrão;

|---|---|--------------------|------------------------|
|-8-|---|--------------------|------------------------|
|-7-|-8-|--------------------|------------------------|
|-5-|-8-|-10-----10----------|-10-----10--------------| 2 x;
|---|-6-|--8-8888-8-88888888-|--8-8888-8-881010121288-|
|---|---|--------------------|------------------------|

|---|---|--------------------|--------------------|---|----|---|---|---|--
|-8-|---|--------------------|--------------------|-8-|----|---|---|---|--
|-7-|-8-|--------------------|--------------------|-7-|-10-|-8-|-7-|---|--
|-5-|-8-|-10-----10----------|-10-----10----------|-5-|-10-|-8-|-7-|-5-|-5
|---|-6-|--8-8888-8-88888888-|--8-8888-8-88888888-|---|--8-|-6-|-5-|-5-|-5
|---|---|--------------------|--------------------|---|----|---|---|-3-|-3

Passagem;

|---------------------|---------------------|---------------------|
|---------------------|---------------------|---------------------|
|---------------------|---------------------|---------------------|
|---------------------|---------------------|---------------------|
|-5-55-5-55-5-55-5-55-|-5-55-5-55-5-55-5-55-|-8-88-8-88-8-88-8-88-|
|---------------------|---------------------|---------------------|

|-------------------|------------------|------------------|--------------|
|-------------------|------------------|------------------|--------------|
|-------------------|------------------|------------------|--------------|
|-7-77-7-77-7-77----|------------------|------------------|-7777777777---|
|----------------3~-|-5555555555555555-|-8888888888888888-|-----------3~-|
|-------------------|------------------|------------------|--------------|

Canto 3;

|------------------|------------------|------------------|
|------------------|------------------|------------------|
|------------------|------------------|------------------|
|------------------|------------------|------------------|
|-5555555555555555-|-5555555555887755-|-4444444444444444-|
|------------------|------------------|------------------|

|------------------|------------------|------------------|
|------------------|------------------|------------------|
|------------------|------------------|------------------|
|------------------|------------------|------------------|
|-4444444444775544-|-3333333333333333-|-3333333333775533-|
|------------------|------------------|------------------|

|------------------|------------------|------------------|
|------------------|------------------|------------------|
|------------------|------------------|------------------|
|------------------|------------------|------------------|
|-2222222222222222-|-2222222222553322-|-11111111113311---|
|------------------|------------------|---------------33-|

|------------------|------------------|------------------|
|------------------|------------------|------------------|
|------------------|------------------|------------------|
|------------------|------------------|------------------|
|------------------|-------------0011-|-3333333333333333-|
|-1111111111111111-|-111111111133-----|------------------|

|------------------|------------------|----------------|
|------------------|------------------|----------------|
|------------------|------------------|----------------|
|------------------|------------------|----------------|
|-3333333333333333-|-0000000000000000-|-00000000000000-|
|------------------|------------------|----------------|

Ponte 2 ; 

|---|-|-------------------|-------------------|
|---|-|-------------------|-------------------|
|-5-|-|-------------------|-------------------|
|-5-|-|-7------7----------|-7------7----------|2 x;
|-3-|-|-5-5555-5-55555555-|-5-5555-5-55555555-|
|---|-|-------------------|-------------------|

|----------------------|----------------------|----------------------|
|----------------------|----------------------|----------------------|
|----------------------|----------------------|----------------------|
|---77-55-77--77-55-77-|---77-55-77--77-55-77-|---55-33-55--55-33-55-|
|-88--------88---------|-88--------88---------|-33--------33---------|
|----------------------|----------------------|----------------------|

|----------------------|----------------------|----------------------|
|----------------------|----------------------|----------------------|
|----------------------|----------------------|----------------------|
|---55-33-55--55-33-55-|---55-33-55--55-33-55-|---55-33-55--55-33-55-|
|-33--------33---------|-66--------66---------|-66--------66---------|
|----------------------|----------------------|----------------------|

|----------------------|-----------------|---------------|
|----------------------|-----------------|---------------|
|----------------------|-7---------------|---------------|
|---77-55-77--77-55-77-|-7---------------|---------------|
|-88--------88---------|-5---------------|---------------|
|----------------------|-----------------|-12\\\\--------|





Repetir Refrão; E fazer um D

Outro;
|--------|-|--------|-|----|-|-|-|----|-|---|-------------|----|-|-|
|--------|-|--------|-|----|-|-|-|----|-|---|-------------|----|-|-|
|-3---3~-|-|-5---5~-|-|-7~-|-|-|-|-3~-|-|---|-----2-----2-|-7~-|-|-|
|-3---3~-|-|-5---5~-|-|-7~-|-|-|-|-3~-|-|-5-|-----2-----2-|-7~-|-|-|
|-1---1~-|-|-3---3~-|-|-5~-|-|-|-|-1~-|-|-5-|-0-0-0-0-0-0-|-5~-|-|-|
|--------|-|--------|-|----|-|-|-|----|-|-3-|-------------|----|-|-|

|-------------|----|-|---|-------------|----------------|----------------|
|-------------|----|-|---|-------------|----------------|----------------|
|-----7-----7-|-3~-|-|---|-----2-----2-|----------------|----------------|
|-----7-----7-|-3~-|-|-5-|-----2-----2-|----------------|----------------|
|-5-5-5-5-5-5-|-1~-|-|-5-|-0-0-0-0-0-0-|-5-5--5-5-5-5-5-|-5-5--5-5-5-5-5-|
|-------------|----|-|-3-|-------------|----------------|----------------|

|----------------|-------------|----------------|----------------|
|----------------|-------------|----------------|----------------|      
|----------------|-----7-----7-|----------------|----------------|
|----------------|-----7-----7-|----------------|----------------|
|-5-5--5-5-5-5-5-|-5-5-5-5-5-5-|-1-1--1-1-1-1-1-|-1-1--1-1-1-1-1-|
|----------------|-------------|----------------|----------------|

|----------------|-------------|----------------|----------------|
|----------------|-------------|----------------|----------------|
|----------------|-----2-----2-|----------------|----------------|
|----------------|-----2-----2-|----------------|----------------|
|----------------|-0-0-0-0-0-0-|-5-5--5-5-5-5-5-|-5-5--5-5-5-5-5-|
|-3-3--3-3-3-3-3-|-------------|----------------|----------------|

|----------------|-----------|----------------|----------------|
|----------------|-----------|----------------|----------------|
|----------------|-----7-5-2-|----------------|----------------|
|----------------|-----7-5-2-|----------------|----------------|
|-5-5--5-5-5-5-5-|-5-5-5-3-0-|-1-1--1-1-1-1-1-|-1-1--1-1-1-1-1-|
|----------------|-----------|----------------|----------------|

|----------------|-------------|-----|-----|
|----------------|-------------|-----|-----|
|----------------|-----2-----2-|-7-5-|-3-2-|
|----------------|-----2-----2-|-7-5-|-3-2-|
|----------------|-0-0-0-0-0-0-|-5-3-|-1-0-|
|-3-3--3-3-3-3-3-|-------------|-----|-----|

Solo;

|-20b-20br-18-|-17~-18-17~------|-15~-----18-17-15-|-17~-------|
|-------------|-----------16-18-|----18h20---------|----18-----|
|-------------|-----------------|------------------|-------19~-|
|-------------|-----------------|------------------|-----------|
|-------------|-----------------|------------------|-----------|
|-------------|-----------------|------------------|-----------|

|-------------------------------------------------------|
|-16h18p16h18p16h18p15h18p15h18p15h18p13h18p13h18p13h18-|
|-------------------------------------------------------|
|-------------------------------------------------------|
|-------------------------------------------------------|
|-------------------------------------------------------|

|--------------------------------------------------|
|-15h18p15h18p15h18p13h18p13h18p13h18p15h18p15h18p-|
|--------------------------------------------------|
|--------------------------------------------------|
|--------------------------------------------------|
|--------------------------------------------------|

|-15h18p15h18p15h18p13h18p13h18p13h15-15/18-|-15~-17-----|
|-------------------------------------------|--------18~-|
|-------------------------------------------|------------|
|-------------------------------------------|------------|
|-------------------------------------------|------------|
|-------------------------------------------|------------|

|-20b-20br-18-|-17~-18-17~------|-15~-----18-17-15-|-17~-------|----------
|-------------|-----------16-18-|----18h20---------|----18-----|-16b-16-15
|-------------|-----------------|------------------|-------19~-|----------
|-------------|-----------------|------------------|-----------|----------
|-------------|-----------------|------------------|-----------|----------
|-------------|-----------------|------------------|-----------|----------

|-----|-----------|-------------------------------------------------------
|-----|-18b-18-16-|-15h16p15h16p15h16-18p15h16p15--15---------------------
|-15~-|-----------|------------------------------17--17p15-14h15p14-------
|-----|-----------|-------------------------------------------------16-17~
|-----|-----------|-------------------------------------------------------
|-----|-----------|-------------------------------------------------------

Passagem; 4 x;
|------|
|-8----|
|-7--7-|
|-5--7-|
|----5-|
|------|

|----|------|------|-------|------|-------|-------|-------|------|
|--8-|------|------|-------|------|-------|-------|-------|------|
|--7-|------|------|-10----|-8--7-|-------|-------|-10----|-8--7-|
|--5-|-5--3-|-5--3-|--8-10-|-8--7-|-12-10-|-12-10-|--8-10-|-8--7-|
|----|-5--3-|-5--3-|-----8-|-6--5-|-10--8-|-10--8-|-----8-|-6--5-|
|----|-3--1-|-3--1-|-------|------|-------|-------|-------|------|

Ponte 3; 2 x
|-------------------|------------------|-------------------|
|-------------------|------------------|-------------------|
|-------------------|------------------|-------------------|
|-5--------5--------|------------------|-7--------7--------|
|-3-333333-3-333333-|-3333333333333333-|-5-555555-5-555555-|
|-------------------|------------------|-------------------|

|------------------|
|------------------|
|------------------|
|------------------|
|-5555555555887755-|
|------------------|

Continuação;

|----------------------|----------------------|----------------------|
|----------------------|----------------------|----------------------|
|----------------------|----------------------|----------------------|
|---77-55-77--77-55-77-|---77-55-77--77-55-77-|---55-33-55--55-33-55-|
|-88--------88---------|-88--------88---------|-33--------33---------|
|----------------------|----------------------|----------------------|

|----------------------|----------------------|----------------------|
|----------------------|----------------------|----------------------|
|----------------------|----------------------|----------------------|
|---55-33-55--55-33-55-|---55-33-55--55-33-55-|---55-33-55--55-33-55-|
|-33--------33---------|-66--------66---------|-66--------66---------|
|----------------------|----------------------|----------------------|

|----------------------|---|
|----------------------|---|
|----------------------|---|
|---77-55-77--77-55-77-|-7-|
|-88--------88---------|-5-|
|----------------------|---|

Final;
|------|-------|----|
|------|-------|----|
|-5--3-|-2-----|----|
|-5--3-|-2-----|-5~-|
|-3--1-|-0-----|-5~-|
|------|----1~-|-3~-|
00:00 / 00:00
Outros vídeos desta música
Repetir
Outros vídeos desta música
Composição de Tobias Sammet
Colaboração e revisão:
  • Valker Renato
5.703 exibições
    • ½ Tom
    • A
    • Bb
    • B
    • C
    • Db
    • D
    • Eb
    • E
    • F
    • F#
    • G
    • Ab
  • Adicionar à lista

    0 comentários

    Ver todos os comentários

    Conseguiu tocar?

    0 Tocaram 0 Ainda não

    Grave um vídeo tocando The Tower e nos envie!

    Entre para oCifra Club PRO

    Tenha acesso a benefícios exclusivos no App e no Site

    • Chega de anúncios

    • Prioridade de compra em lançamentos

    • Mais recursos no app do Afinador

    • Atendimento Prioritário

    • Descontos nos produtos Cifra Club

    • Ajude a produzir mais conteúdo

    00:00 / 00:00

    Cifra Club Pro

    Aproveite o Cifra Club com benefícios exclusivos e sem anúncios
    Cifra Club Pro
    Aproveite o Cifra Club com benefícios exclusivos e sem anúncios
    OK