Enviar cifraEntrar

Afterlife

Avenged Sevenfold

Cifra: Principal
exibições 505.738
Tom: C
Intro 2x: D5  Bb5  G5  D#5
(Guitarra 1)

E|---------------------------------------------------
B|-5-6/13-13~--6-5-6-5-6/15-15~-6-5-6/17-17-17~------
G|---------------------------------------------------
D|---------------------------------------------------
A|---------------------------------------------------
D|---------------------------------------------------


E|---------------------------------------------------
B|-15-17b18-17-18b20---------------------------------
G|---------------------------------------------------
D|---------------------------------------------------
A|---------------------------------------------------
D|---------------------------------------------------


E|-12-13-12-10-----12-13-12-10-----12-13-12-10-------
B|-------------10--------------10--------------------
G|---------------------------------------------------
D|---------------------------------------------------
A|---------------------------------------------------
D|---------------------------------------------------


E|-12-13-12-10-----12-13-12-10-----12-13-12-10-------
B|-------------11--------------11--------------------
G|---------------------------------------------------
D|---------------------------------------------------
A|---------------------------------------------------
D|---------------------------------------------------


E|-17-18-17-15----17-18-17-15----17-18-17-15---------
B|-------------15-------------15-------------15------
G|---------------------------------------------------
D|---------------------------------------------------
A|---------------------------------------------------
D|---------------------------------------------------


E|-17-18-17-15----17-18-17-15----17b18~--------------
B|-------------16-------------16---------------------
G|---------------------------------------------------
D|---------------------------------------------------
A|---------------------------------------------------
D|---------------------------------------------------


(Guitarra 2)

E|---------------------------------------------------
B|-8-10/17-17~--10-8-10-8-10/18-18~-10-8-10/20-20~---
G|---------------------------------------------------
D|---------------------------------------------------
A|---------------------------------------------------
D|---------------------------------------------------


E|---------------------------------------------------
B|-18-20b22-20-22b23~--------------------------------
G|---------------------------------------------------
D|---------------------------------------------------
A|---------------------------------------------------
D|---------------------------------------------------


E|-15-17-15-13-----15-17-15-13-----15-17-15-13-------
B|-------------15--------------15--------------------
G|--------------------------------------------------- (2x)
D|---------------------------------------------------
A|---------------------------------------------------
D|---------------------------------------------------


E|-20-22-20-18----20-22-20-18----20-22-20-18---------
B|-------------20-------------20---------------------
G|---------------------------------------------------
D|---------------------------------------------------
A|---------------------------------------------------
D|---------------------------------------------------


E|-20-22-20-18----20-22-20-18-----20b22~-------------
B|-------------20-------------20---------------------
G|---------------------------------------------------
D|---------------------------------------------------
A|---------------------------------------------------
D|---------------------------------------------------


(Guitarra 3)

   D5
E|-----------------------------------------
B|-----------------------------------------
G|-----------------------------------------
D|-7-7-7-7-7--7-7--7-7-7-------------------
A|-5-5-5-5-5--5-5--5-5-5-------------------
D|-----------------------------------------


   B5
E|-----------------------------------------
B|-----------------------------------------
G|-----------------------------------------
D|-3-3-3-3-3--3-3--3-3-3-------------------
A|-1-1-1-1-1--1-1--1-1-1-------------------
D|-----------------------------------------


   G5
E|-----------------------------------------
B|-----------------------------------------
G|-----------------------------------------
D|-5-5-5-5-5--5-5--5-5-5-------------------
A|-5-5-5-5-5--5-5--5-5-5-------------------
D|-5-5-5-5-5--5-5--5-5-5-------------------


 D#5
E|-----------------------------------------
B|-----------------------------------------
G|-----------------------------------------
D|-1-1-1-1-1--1-1--1-1-1-------------------
A|-1-1-1-1-1--1-1--1-1-1-------------------
D|-1-1-1-1-1--1-1--1-1-1-------------------


Primeira parte:
(Riff 1)
Like walking into a dream
So unlike what you've seen
So unsure but it seems
'Cause we've been waiting for you

Fallen into this place
Just giving you a small taste
Of your afterlife here so stay
You'll be back here soon anyway
Riff 1:

E|---------------------------------------------------
B|---------------------------------------------------
G|---------------------------------------------------
D|---------------------------------------------------
A|-5h8p5---5h8p5---------5h8p5---5h8p5---------------
D|-------6-------6-0-0-0-------6-------6-0-0-0-------

  p.m.             .....                 .....


E|---------------------------------------------------
B|---------------------------------------------------
G|---------------------------------------------------
D|---------------------------------------------------
A|-5h8p5---5h8p5---------5h8p5---5h8p5---------------
D|-------6-------6-0-0-0-------6-------6-0-0-0-------

  p.m.             .....                 .....


   F5 G5        G#5
E|-----------------------------------------
B|-----------------------------------------
G|-----------------------------------------  (4x)
D|-----------------------------------------
A|-3--5--6---------------------------------
D|-3--5--6---------------------------------


   F5 G5 G#5  G5 F5 D5
E|-----------------------------------------
B|-----------------------------------------
G|-----------------------------------------
D|-----------------------------------------
A|-3--5--6--6-5--3--0----------------------
D|-3--5--6--6-5--3--0----------------------


(Guitarra 2)

E|-----------------------------------------
B|-----------------------------------------
G|-7h10p7---7h10p7-------------------------
D|--------6--------6-----------------------
A|-----------------------------------------
D|-------------------0-0-0-----------------

  p.m                . . .

(Riff 2)
I see a distant light
But girl this can't be right
Such a surreal place to see
So how did this come to be
Arrived too early
Riff 2:

   C5                        D5
E|-----------------------------------------
B|-----------------------------------------
G|----------------9--10-12-----------------
D|-5---5-5--5-5---x--x-x-----0-------------
A|-3---3-3--3-3---7--8--10---0-------------
D|---------------------------0-------------


   C5
E|-----------------------------------------
B|-----------------------------------------
G|----------------12--14-15----------------
D|-5---5-5--5-5---x---x--x-----------------
A|-3---3-3--3-3---10--12-13----------------
D|-----------------------------------------


E|-----------------------------------------
B|-----------------------------------------
G|-----------------------------------------
D|-----------------------------------------
A|-----------------------------------------
D|-0-0-8-0-7-0-0-10-0-8-0-0-7-8-7-5--------

   p.m..............................


   C5
E|-----------------------------------------
B|-----------------------------------------
G|-----------------------------------------
D|-5--5-5--5-5-----------------------------
A|-3--3-3--3-3-----------------------------
D|-----------------------------------------


  C5           Bb5
E|-----------------------------------------
B|-----------------------------------------
G|-----------------------------------------
D|-5--5-5--5-5--3--3-3--3-3---3--3-3--3-3--
A|-3--3-3--3-3--1--1-1--1-1---1--1-1--1-1--
D|-----------------------------------------


   C5    C#5
E|-----------------------------------------
B|-----------------------------------------
G|-----------------------------------------
D|-5-5---5-5-------------------------------
A|-3-3---4-4-------------------------------
D|-----------------------------------------


Segunda Parte:
And when I think of all the places
I just don't belong
I've come to grips with life
And realize this is going too far
(Guitarra 1 e 2)

   D5            F5           Bb5
E|-----------------------------------------
B|-----------------------------------------
G|-----------------------------------------   (2x)
D|-0----------0----------------3--3-3-3-3-3
A|-0--0-0-0-0-0--3-3-3--3-3-3--1--1-1-1-1-1
D|-0--0-0-0-0-0--3-3-3--3-3-3--------------


   C5
E|-----------------------------------------
B|-----------------------------------------
G|-----------------------------------------
D|-5-5-5-----------------------------------
A|-3-3-3--7h8-7~---------------------------
D|-----------------------------------------


Refrão:
F5            C5
   I don't belong here
              D5
We gotta move on dear
   Bb5           F5
Escape from this afterlife
             C5
'Cause this time I'm right
        D5
To move on and on
 Bb5
Far away from here
(Guitarra 1)

   F5               C5
E|-----------------------------------------
B|-----------------------------------------
G|-----------------------------------------
D|-3-3-3-3-3-3-3-3--5-5-5-5-5-5-5-5--------
A|-3-3-3-3-3-3-3-3--3-3-3-3-3-3-3-3--------
D|-3-3-3-3-3-3-3-3-------------------------


   D5              Bb5
E|-----------------------------------------
B|-----------------------------------------
G|-----------------------------------------
D|-0-0-0-0-0-0-0-0-3-3-3-3-3-3-3-3---------
A|-0-0-0-0-0-0-0-0-1-1-1-1-1-1-1-1---------
D|-0-0-0-0-0-0-0-0-------------------------


(Guitarra 2 - notas oitavadas)

E|-----------------------------------------
B|-----------------------------------------
G|-10-10-10-10-10-10-10-10-9-9-9-9-9-9-9-9-
D|-x--x--x--x--x--x--x--x--x-x-x-x-x-x-x-x-
A|-8--8--8--8--8--8--8--8--7-7-7-7-7-7-7-7-
D|-----------------------------------------


E|-----------------------------------------
B|-----------------------------------------
G|-7-7-7-7-7-7-7-7-3-3-3-3-3-3-3-3---------
D|-x-x-x-x-x-x-x-x-x-x-x-x-x-x-x-x---------
A|-5-5-5-5-5-5-5-5-1-1-1-1-1-1-1-1---------
D|-----------------------------------------


Variação:
(Guitarra 1)

   D5            Bb5
E|-------------------------------------------
B|-------------------------------------------
G|-------------------------------------------
D|-0-0-0-0-0-0-0-0-3-3-3-3-3-3-3-3-3-3-3-3-3-
A|-0-0-0-0-0-0-0-0-1-1-1-1-1-1-1-1-1-1-1-1-1-
D|-0-0-0-0-0-0-0-0---------------------------


(Guitarra 2)

E|-----------------------------------------
B|-----------------------------------------
G|-3-3-3-3-3-3-3-3-9-9-9-9-9---------------
D|-x-x-x-x-x-x-x-x-x-x-x-x-x---------------
A|-1-1-1-1-1-1-1-1-7-7-7-7-7---------------
D|-----------------------------------------


Repete a música com variação na letra:

(Riff 1)
A place of hope and no pain
Perfect skies with no rain
Can leave this place but refrain
'Cause we've been waiting for you

Fallen into this place
Just giving you a small taste
Of your afterlife here so stay
You'll be back here soon anyway

(Riff 2)
This peace on earth's not right
(With my back against the wall)
No pain or sign of time
(I'm much too young to fall)
So out of place don't wanna stay
I feel wrong and that's my sign
I've made up my mind

(Segunda parte)
Gave me your hand but realize
I just wanna say goodbye
Please understand I have to leave
And carry on my own life

Refrão:
F5            C5
   I don't belong here
              D5
We gotta move on dear
   Bb5           F5
Escape from this afterlife
             C5
'Cause this time I'm right
        D5
To move on and on
 Bb5
Far away from here
F5               C5
   Got nothing against you
                D5
nd surely I'll miss you
       Bb5          F5
This place full of peace and light
         C5
And I'd hope you might
         D5           Bb5
Take me back inside when the time is right

Terceira parte: D5  Bb5  G5  D#5
                D5  Bb5  G5  Bb5  A5

D5                  Bb5
   Loved ones back home all crying 'cause they're
   G5
already missing me
D5                 Bb5
   I pray by the grace of God
              G5
That there's somebody listening

D5             Bb5              G5
   Give me a chance to be that person I wanna be

D5                Bb5
   Oh Lord I'll try so hard
         G5
But you gotta let go of me
Terceira Parte:

   D5
E|-----------------------------------------
B|-----------------------------------------
G|-----------------------------------------
D|-0-0-0--0-0-0--0-0-0--0-0-0--------------
A|-0-0-0--0-0-0--0-0-0--0-0-0--------------
D|-0-0-0--0-0-0--0-0-0--0-0-0--------------

   pm........................


   Bb5
E|-----------------------------------------
B|-----------------------------------------
G|-----------------------------------------
D|-8-8-8--8-8-8--8-8-8--8-8-8--------------
A|-8-8-8--8-8-8--8-8-8--8-8-8--------------
D|-8-8-8--8-8-8--8-8-8--8-8-8--------------

   pm........................


   G5
E|-----------------------------------------
B|-----------------------------------------
G|-----------------------------------------
D|-5-5-5--5-5-5--5-5-5--5-5-5--------------
A|-5-5-5--5-5-5--5-5-5--5-5-5--------------
D|-5-5-5--5-5-5--5-5-5--5-5-5--------------

   pm........................


   D#5
E|-----------------------------------------
B|-----------------------------------------
G|-----------------------------------------
D|-1-1-1--1-1-1--1-1-1--1-1-1--------------
A|-1-1-1--1-1-1--1-1-1--1-1-1--------------
D|-1-1-1--1-1-1--1-1-1--1-1-1--------------

   pm.......................

(  D5  Bb5  G5 )


   Bb5           A5
E|-----------------------------------------
B|-----------------------------------------
G|-----------------------------------------
D|-8-8-8--8-8-8--7-7-7--7-7-7--------------
A|-8-8-8--8-8-8--7-7-7--7-7-7--------------
D|-8-8-8--8-8-8--7-7-7--7-7-7--------------

   pm........................


   D5        Bb5      G5       Bb5  A5
E|-----------------------------------------
B|-----------------------------------------
G|-----------------------------------------
D|-0--------8--------5--------8----7-------  (8x)
A|-0--------8--------5--------8----7-------
D|-0--------8--------5--------8----7-------


Solo 1: D5  Bb5  G5  Bb5  A5
        D5  Bb5  G5  D#5


E|---------------------------------------------------
B|---------5h6h8p6h5---5h6h8/15----------------------
G|-----5-7-----------7-------------------------------
D|---------------------------------------------------
A|-5-8-----------------------------------------------
D|---------------------------------------------------


E|---------------------------------------------------
B|---------5h6h8p6h5---5h6h8/20~---------------------
G|-----5-7-----------7-------------------------------
D|---------------------------------------------------
A|-5-8-----------------------------------------------
D|---------------------------------------------------


E|-8/13\8p5h6h8p6p5------6p5p3-----------------------
B|------------------8p6p5------6p5p3-6/-\6p3h5h6p5p3-
G|---------------------------------------------------
D|---------------------------------------------------
A|---------------------------------------------------
D|---------------------------------------------------


E|---------------------------------------------------
B|---------------------------------------------------
G|-6p5p3\2h3h5p3p2-----------------------------------
D|-----------------5p3p2-----------------------------
A|---------------------------------------------------
D|---------------------------------------------------


Solo 2: D5  Bb5  G5  Bb5  A5


E|-17-16-15-13-15-16-17-16-15-13-15-16-17-16-15-13---
B|---------------------------------------------------
G|---------------------------------------------------
D|---------------------------------------------------
A|---------------------------------------------------
D|---------------------------------------------------


E|----------------------13-15-16-17~-----------------
B|-15----------------15------------------------------
G|----14----------14---------------------------------
D|-------15----15------------------------------------
A|----------17---------------------------------------
D|---------------------------------------------------


E|-13-12-10----10-12-13-12-10-------13p10------------
B|----------11----------------11----------11---------
G|-------------------------------10----------10------
D|----------------------------------------------12---
A|-------------------------------------------------13
D|---------------------------------------------------


E|----------10-12-13~--------------------------------
B|-------11------------------------------------------
G|----10---------------------------------------------
D|-12------------------------------------------------
A|---------------------------------------------------
D|---------------------------------------------------


E|-18-17-16-15-16-17-18-17-16-15---------------------
B|---------------------------------------------------
G|---------------------------------------------------
D|---------------------------------------------------
A|---------------------------------------------------
D|---------------------------------------------------


E|13-12-10---------~---------------15------18--------
B|---------11-------------------16-------------------
G|-----------10-------------15-----------------------
D|---------------11-------17-------------------------
A|------------------13/18----------------------------
D|---------------------------------------------------


E|-17-16-15-13-15-16-17-16-15-13----------13-17/22\17
B|-------------------------------15----15------------
G|----------------------------------14---------------
D|---------------------------------------------------
A|---------------------------------------------------
D|---------------------------------------------------


E|-13---------------------------------------17-18-20-
B|----15---------------------------17-18-20----------
G|-------14---------------14-15-17-------------------
D|----------15---14-15-17----------------------------
A|-------------17------------------------------------
D|---------------------------------------------------


E|-------10-13--10-----10--15--13--15-13-15-13-------
B|-10-13-----------13--------------------------------
G|---------------------------------------------------
D|---------------------------------------------------
A|---------------------------------------------------
D|---------------------------------------------------


E|-13--10-----10--15-10-13-10-15-10-13---------------
B|--------13-----------------------------------------
G|---------------------------------------------------
D|---------------------------------------------------
A|---------------------------------------------------
D|---------------------------------------------------


E|-13-15-13----13-17--13--15-13-17-13-15-13-17-13-15-
B|----------17---------------------------------------
G|---------------------------------------------------
D|---------------------------------------------------
A|---------------------------------------------------
D|---------------------------------------------------


E|-18-17-15----------17-15-13-------------------------
B|----------18-17-15----------17-15-13----------------
G|-------------------------------------17-15-14-------
D|----------------------------------------------17-15-
A|----------------------------------------------------
D|----------------------------------------------------


E|---------------------------------------------------
B|---------------------------------------------------
G|----------14-15-17-19-17-15----------17-15-14------
D|-14-15-17-------------------19-17-15---------------
A|---------------------------------------------------
D|---------------------------------------------------


E|---------------------------------------------------
B|-------------------------------20b23---------------
G|----------------14-15-17-17b19---------------------
D|-17-15-14-15-17------------------------------------
A|---------------------------------------------------
D|---------------------------------------------------


Pós-Solo:
(Guitarra 1)

   D5                 C5        E5
E|---------------------------------------
B|---------------------------------------
G|---------------------------------------
D|-7-7-7-7-7-0-0-0-0--5-5-5-5-5-2--2-2-2-  (2x)
A|-5-5-5-5-5-0-0-0-0--3-3-3-3-3-2--2-2-2-
D|-----------0-0-0-0------------2--2-2-2-

   p.m.      .......            ........


   D5                          C5
E|---------------------------------------
B|---------------------------------------
G|---------------------------------------
D|-7-7-7-7-7--0-0-0-0-0--0-0-0-5-5-5-5-5-
A|-5-5-5-5-5--0-0-0-0-0--0-0-0-3-3-3-3-3-
D|------------0-0-0-0-0--0-0-0-----------

  p.m.        ................


   E5
E|---------------------------------------
B|---------------------------------------
G|---------------------------------------
D|-2-2-2-2-2--2-2-2----------------------
A|-2-2-2-2-2--2-2-2----------------------
D|-2-2-2-2-2--2-2-2----------------------

  p.m..............


     D5  E5  F5  G5
E|---------------------------------------
B|---------------------------------------
G|---------------------------------------
D|---0---2---3---5---5-------------------
A|---0---2---3---5---3-------------------
D|---0---2---3---5---2-------------------


(Guitarra 2)

E|---------------------------------------
B|---------------------------------------
G|--9/10-10/12/-12/14-14/15/12-12--------
D|--x-x--x--x---x--x--x--x--x--x---------
A|--7/8--8/10/--10/12-12/13/10-10--------
D|---------------------------------------


(Guitarra 1)

E|------------------------------------------
B|------------------------------------------
G|------------------------------------------
D|-----3-2h3p2h3p2h3p2h3p2p0h2--------------
A|-1/3-------------------------1/3/5/7/10/7-
D|------------------------------------------


Refrão:
F5            C5
   I don't belong here
              D5
We gotta move on dear
   Bb5           F5
Escape from this afterlife
             C5
'Cause this time I'm right
        D5
To move on and on
 Bb5
Far away from here
F5               C5
   Got nothing against you
                 D5
And surely I'll miss you
       Bb5          F5
This place full of peace and light
         C5
And I'd hope you might
         D5           Bb5                 D5
Take me back inside when the time is right
  • 1
  • 2
  • 3
  • 4
  • 5
  • 6
  • 7
  • 8
  • 9
  • 10
  • 11
  • 12
    Acordes para:
      Composição: Avenged SevenfoldColaboração e revisão:

      0 comentários

        mostrar mais comentários

        Conseguiu tocar?

        92tocaram2ainda não

        Grave um vídeo tocando Afterlife e mande pra gente!

        00:00 / 00:00
        outros vídeos desta música
        repetirqualidadeautomática
        • automática
        Outro vídeos desta música
          Capítulos
          • Início
          • Dicas Iniciais (Afinação)
          • Tocando a música
          • Dicas de Pedais
          • Power chords da Introdução (Base)
          • Tocando Introdução
          • Guitarra 1: Introdução (1/5)
          • Guitarra 1: Introdução (2/5)
          • Guitarra 1: Introdução (3/5)
          • Guitarra 1: Introdução (4/5)
          • Guitarra 1: Introdução (5/5)
          • Guitarra 2: Introdução (1/4)
          • Guitarra 2: Introdução (2/4)
          • Guitarra 2: Introdução (3/4)
          • Guitarra 2: Introdução (4/4)
          • Guitarra 3: Introdução (Base)
          • Power chord Riffs - 1ª Parte
          • Tocando Primeira Parte
          • Guitarra 1: Riff 1 (1/2)
          • Guitarra 1: Riff 1 (2/2)
          • Guitarra 2: Riff 1
          • Guitrra 1: Riff 2 (1/5)
          • Guitrra 1: Riff 2 (2/5)
          • Guitrra 1: Riff 2 (3-5/5)
          • Power chords Segunda Parte e Refrão
          • Tocando Segunda Parte
          • Varições Guitarra 1 e 2: Refrão
          • Guitarra 1: Segunda Parte
          • Guitarra 1: Refrão
          • Guitarra 2: Refrão
          • Tocando Terceira Parte - Final
          • Guitarra 1: Terceira Parte
          • Guitarra 1: Solo 1 (1/4)
          • Guitarra 1: Solo 1 (2/4)
          • Guitarra 1: Solo 1 (3/4)
          • Guitarra 1: Solo 1 (4/4)
          • Guitarra 1: Solo 2 (1/10)
          • Guitarra 1: Solo 2 (2/10)
          • Guitarra 1: Solo 2 (3/10)
          • Guitarra 1: Solo 2 (4/10)
          • Guitarra 1: Solo 2 (5-6/10)
          • Guitarra 1: Solo 2 (7/10)
          • Guitarra 1: Solo 2 (8-10/10)
          • Guitarra 1: Pós- Solo
          • Guitarra 2: Pós-Solo
          • Guitarra 1: Frase Final
          • Encerramento
          00:00 / 00:00
          automática
          • automática
          1 versão de Tab de baixoexibiçõescontribuições
          1 versão de Tab de bateriaexibiçõescontribuições
          2 versões de Guitar Proformatodownloadscontribuição
          1 versão de Partiturasformatodownloadscontribuição
          fecharplay/pause subir/descer velocidade
            acordes
            fechar
            OK
            Feedback