Cifra Club

Dear God

Avenged Sevenfold

Cifra: Principal (violão e guitarra)
tom: F (forma dos acordes no tom de G) Afinação: D G C F A D
[Intro] G  D  Em  Bm  C9  G  D
        G  D  Em  Bm  C9  G  D

(Violão 2)

Parte 1 de 5

   G
E|---3-------------------------------------|
B|---3--0h1p0---------3--------------------|
G|---0--------2-0---2----2-2h4p2p0-----0---|
D|---0------------4-----4----------2/4-----|
A|-----------------------------------------|
E|-3-------------------------------------0-|

Parte 2 de 5

            Bm11        C
E|----------0-0----------------------------|
B|----------3---3---------------1h3-1------|
G|-2--------4-----4---------0--------------|
D|-4h5p4p2--4-------------2---2------------|
A|-2--------2-------2-5-3------------------|
E|-----------------------------------------|

Parte 3 de 5

                    D
E|------------------2----------------------|
B|-------0----0-----3--------------3-------|
G|-----2---2----2p0-2--------------2h4p2---|
D|------------------0----4h5-2-4-5-------5-|
A|-----------------------------------------|
E|-3---------------------------------------|

Parte 4 de 5

E|-----------------------------------------|
B|-3---------------------------------------|
G|-4---------------------------------------|
D|---5-4-5-2-0-----------------------------|
A|-----------------------------------------|
E|-----------------------------------------|

Parte 5 de 5

E|------------------2----------------------|
B|-------0----0-----3---3---3-3-------3----|
G|-----2---2----2p0-2---2h4-2-0-------2----|
D|------------------0-----------0-2h4-4----|
A|-----------------------------------------|
E|-3---------------------------------------|

[Primeira Parte]

Parte 1 de 6

E|--------------------------3-2------------|
B|-------3---3----------3-------3----------|
G|-----0---0---0------2---2-------0--------|
D|---0-----------0--0----------------------|
A|-----------------------------------------|
E|-3---------------------------------------|

Parte 2 de 6

E|-------0-------0--0----------------------|
B|-----3---x--x--3----3--------------------|
G|---0-0---x--x--4------4------------0-----|
D|---2-----x--x--4-----------------2---2---|
A|---------x--x--2-----------2-5-3---------|
E|-0---------------------------------------|

Parte 3 de 6

E|-------------3-------2-------------------|
B|-1h3-----------3-----3------------3------|
G|---------2h4----4p2--2------------2h4p2--|
D|-------0-------------0--4h5-2-4-5-------5|
A|-----------------------------------------|
E|-----3-----------------------------------|

Parte 4 de 6

E|-----------------------------------------|
B|-3---------------------------------------|
G|-4---------------------------------------|
D|---5-4-5-2-0-----------------------------|
A|-----------------------------------------|
E|-----------------------------------------|

Parte 5 de 6

E|-------------3-------2-------------------|
B|-1h3-----------3-----3--3---3-3----------|
G|---------2h4----4p2--2--2h4-2-0----------|
D|-------0-------------0----------2-2h4----|
A|-----------------------------------------|
E|-----3-----------------------------------|

Parte 6 de 6

E|-----------------------------------------|
B|-----------------------------------------|
G|-0-2--2h4p2p0----------------------------|
D|-----------------------------------------|
A|-----------------------------------------|
E|-----------------------------------------|

G           D    
  A lonely road
          Em                Bm
Crossed another cold state line
 C9               G   
Miles away from those 
        D
I love purpose hard to find
G            D            Em   
  While I recall all the words 
              Bm
You spoke to me
       C9                G
Can't help but wish that I was there
       D
Back where I'd love to be, oh yeah

[Refrão]

G       D      Em           D
  Dear God the only thing I ask 

Of you is
    C9                 G
To hold, her when I'm not around
          D
When I'm much too far away
G         D         Em    
  We all need that person 
          D
Who can be true to you
       C9              G
But I left her when I found her
     D
And now I wish I'd stayed
            C9             D
’Cause I'm lonely and I'm tired
     B7           Em  D   C9
I'm missing you again oh no
       G
Once again

[Primeira Parte] (com variação na letra)

                 D   
There's nothing here 
       Em              Bm
For me on this barren road
         C9               
There's no one here while 
     G
The city sleeps
    D
And all the shops are closed
G                  D   
  Can't help but think 
        Em                  Bm
Of the times I've had with you
 C9                G       
Pictures and some memories 
      D
Will have to help me through, oh yeah

[Refrão]

G       D      Em           D
  Dear God the only thing I ask 

Of you is
    C9                 G
To hold, her when I'm not around
          D
When I'm much too far away
G         D         Em    
  We all need that person 
          D
Who can be true to you
       C9              G
But I left her when I found her
     D
And now I wish I'd stayed
            C9             D
’Cause I'm lonely and I'm tired
     B7           Em  D   C9
I'm missing you again oh no
       G
Once again

[Terceira Parte]

Parte 1 de 6

E|------------------------------------------|
B|------------------------------------------|
G|-------11----12---11---------11----12-----|
D|-------9-----9----9----9--9--9-----9------|
A|-7--7--7-----7----7-----------------------|
E|-0--0-----0----0-----0-11-11----11----11--|

Parte 2 de 6

E|------------------------------------------|
B|------------------------------------------|
G|-11---------------9-----------------------|
D|-9-----------12-------12---------7---7----|
A|----------10-------------------5-------5--|
E|----11--8-------8---8-----8--3-----3------|

Parte 3 de 6

E|------------------------------------------|
B|------------------------------------------|
G|------------------------------------------|
D|------------------------------------------|
A|------------------------------------------|
E|-2b3r2------------------------------------|

Parte 4 de 6

E|------------------------------------------|
B|-----0----0----0--------------------------|
G|-4---4----5----4--------------------------|
D|-5---5----5----5--------------------------|
A|-0-0-0--0-0--0-0-0------------------------|
E|-5-5----5----5---5------------------------|

Parte 5 de 6

E|------------------------------------------|
B|------------------------------------------|
G|---------12----11----11----12----11h14p11-|
D|---------12----14----12----12-------------|
A|-x---x------------------------------------|
E|-10--10--10-10----10----10----10----------|

Parte 6 de 6

E|------------------------------------------|
B|------------------------------------------|
G|-----12-12--------------------------------|
D|-14--12-12--------------------------------|
A|------------------------------------------|
E|------------------------------------------|

Em      D#º   
  Some search
C                  G  D9/F#
  Never finding a way
Em        D#º  
  Before long
C              G  D9/F#
  They waste away
Em         D#º  
  I found you 
C                        G  D9/F#
  Something told me to stay
Em       D#º  C            G  D9/F#
  I gave in,   to selfish ways
Am7                          D
  And how I miss someone to hold

When hope begins to fade

[Primeira Parte]

      G                 D
E|----3-3---3--2--2--0---------------------|
B|----3-3---3--3--3--3---------------------|
G|----0-0---0--2--2--2--0-0-0-0-0----------|
D|----0-0---0--0--0--0--0-5p0-5p0h4p2h4----|
A|----------2------------------------------|
E|----------3------------------------------|
      ↓ ↓   ↑  ↓  ↓  ↑

                C9       G
E|--------------3-3---3--------------------|
B|--2-2h5p2--2--3-3---3------3--3----------|
G|--4-------4---0-0---0------0--0----------|
D|--4-----------2-2---2----0----0----------|
A|--------------3-3---3---------2----------|
E|-----------------------3------3----------|
                ↓ ↓   ↑         ↑

    D
E|--2-2---2--------------------------------|
B|--3-3---3--------------------------------|
G|--2-2---2--------------------------------|
D|--0-0---0--------------------------------|
A|-----------------------------------------|
E|-----------------------------------------|
    ↓ ↓   ↑

G           D    
  A lonely road
          Em                Bm
Crossed another cold state line
 C9               G   
Miles away from those 
        D
I love purpose hard to find

[Refrão]

G       D      Em           D
  Dear God the only thing I ask 

Of you is
    C9                 G
To hold, her when I'm not around
          D
When I'm much too far away
G         D         Em    
  We all need that person 
          D
Who can be true to you
       C9              G
But I left her when I found her
     D
And now I wish I'd stayed
            C9             D
’Cause I'm lonely and I'm tired
     B7           Em  D   C9
I'm missing you again oh no
       G
Once again
00:00 / 00:00
Outros vídeos desta música
Repetir
Outros vídeos desta música
Composição de Avenged Sevenfold
966.792 exibições
    • ½ Tom
    • A
    • Bb
    • B
    • C
    • Db
    • D
    • Eb
    • E
    • F
    • F#
    • G
    • Ab
  • Adicionar à lista

    0 comentários

    Ver todos os comentários

    Entre para oCifra Club PRO

    Tenha acesso a benefícios exclusivos no App e no Site

    • Chega de anúncios

    • Prioridade de compra em lançamentos

    • Mais recursos no app do Afinador

    • Atendimento Prioritário

    • Descontos nos produtos Cifra Club

    • Ajude a produzir mais conteúdo

    00:00 / 00:00
    Capítulos
    • Início
    • Afinação
    • Tocando a música
    • Acordes da Primeira Parte
    • Tocando Introdução
    • Ensinando Ritmo
    • Ensinando Introdução - Violão Solo
    • Tocando Primeira e Segunda Parte
    • Ensinando Segunda Parte
    • Ensinando Primeira Parte - Violão Solo
    • Tocando Refrão
    • Ensinando Passagem do Refrão
    • Acordes da Terceira Parte
    • Tocando Terceira Parte
    • Ensinando Ritmo da Terceira Parte
    • Ensinando Riff - Violão Solo
    • Encerramento

    Cifra Club Pro

    Aproveite o Cifra Club com benefícios exclusivos e sem anúncios
    Cifra Club Pro
    Aproveite o Cifra Club com benefícios exclusivos e sem anúncios
    OK