Enviar cifraEntrar

M.I.A

Avenged Sevenfold

Cifra: Versão 3
exibições 48.431
Tom: D
(solo do inicio)

 Gtr I
||----------10-------|---------5---|--------------|-------0------||
||o---10-------10----|---6---8---6-|---8---10-8---|-3-1-----2---o||
||-------10-------10-|-----7-------|-----9------9-|-----2-----0--||
||-------------------|-------------|--------------|--------------||
||o-8----------------|-5-----------|-7------------|-------------o||
||-------------------|-------------|--------------|--------------||
|
|   Gtr II
|   
||-----------5-------|-------0-1---|---0------0---|--------------||
||o----6--------6----|---3-------3-|--------6-----|-------2-----o||
||--------7--------7s|=3---3-------|-----5------5-|-3-2-----3----||
||-------------------|-------------|--------------|-----3-----2--||
||o-5----------------|-1-----------|-3------------|-------------o||
||-------------------|-------------|--------------|--------------||

Este solo é repetido 6x até 1:05 de musica.

(solo do inicio)  
Staring at the carnage, praying that the sun will never
rise. 
Living another day in disguise. 
These feelings cant be right, lend me your courage to
stand up and fight, on tonight. 
Ooooo.... 
Stand up and fight. 

(G D A Em G D A C Em)2x
A harmonia do verso é essa [com os riffs]

||--------------|-------------|--------------|--------------------|
||o-------------|-------------|--------------|--------------------|
||----7---------|-------------|--------------|--------------------|
||----7---------|-------------|-----------/8-|-(8)-7-5-0---0-3-5--|
||o---5---------|-------------|--------------|-----------1--------|
||--------------|-------------|--------------|--------------------|



  N.C.                  C5  N.C.

  W          W          E E H    E  E   +E  E E E +E  E E E
|----------|----------|---------------|----------------------||
|----------|----------|---------------|---------------------o||
|----------|----------|-5-5-----------|---------5-(5)--------||
|----------|----------|-5-5--------/3-|-(3)-2-3-------3-2-3--||
|----------|----------|-3-3-----------|---------------------o||
|----------|----------|---------------|----------------------||


Verso 1:

D5                        
Now fighting rages on and on,
C5                              
to challenge me you must be strong.
D5
I'll walk your land but don't be long,
C5                            
two million soldiers cant be wrong. 

G
Its no fun but i've been here before. 
Em
I'm far from home and im fighting your war. 
 D            A               Em            G
(By the way i pictured this i wanted better things) 
G
Some are scared others killing for fun,
Em
i shot a mother in front of her son. 
 D            A                     Em                 G
(Change this from my consciousness and please erase my dreams) 

[PALHETADA NO REFRÃO - 2 BATIDAS NA CORDA DE CIMA E UMA NO ACORDE TODO]

D5                 Bb5
Fight for honour, fight for your life. 
 C5                F5
Pray to god that our side is right. 
G5             A5              
I know we won but still we lose,
D5
until I make it home to you. 

D5                 Bb5                 C5                
I see your mother still in tears we grew up so fast
    F5                              
where did those years go. 
G5              A5     Bb5         D5
Memories wont let you cry unless i don't return tonight.



D5                         D5
So many soldiers on the other side, 
D5
I take their live so they can't take mine. 
D5               Bb5                G5              F5
(Scared to make it out alive now murders all i know.)

D5
Nobody tells me all the reasons were here,
D5
i am a weapon so there's nothing to fear. 
D5            Bb5               G5               F5
(Another day another life but nothing real to show for.) 

D5                 Bb5
Fight for honour, fight for your life. 
 C5                F5
Pray to god that our side is right. 
G5             A5              
I know we won but still we lose,
D5
until we make it home to you. 

D5                 Bb5                 C5                
I see your mother still in tears we grew up so fast
    F5                              
where did those years go. 
G5              A5     Bb5         D5
Memories wont let you cry unless i don't return tonight.

[Base do Verso]
Letras:
Staring at the carnage, praying that the sun will never
rise. 
Living another day in disguise. 
These feelings cant be right, lend me your courage to
stand up and fight, on tonight.


C                                                   C Em C Em
Watching the death tool rise wondering how im alive. 
G                             A
Strangers blood on my hands, showed all i can. 
C                                                         C Em C Em                               
There were no sunny nights watching your brothers all die 
G                            A                         
To destroy all their plans with no thought of me.

(No thought of me) 
               G
No thought of me. 


SOLO 

Guitar Solo
  a Tempo Q=162
  D5    N.C.
 4/4
  Gtr III
                                                           ~~~~~~~

                                    |------5-------|

   E  E  E   E  E  E  E  E    E  E  S  S  S     S  S  E   +Q.
|--------------10----12----|-13----------------13-15-16--(16)b17-----|
|-----------10----10----10-|-----9-------13--------------------------|
|-------10-----------------|----------13-----------------------------|
|-11-12--------------------|-------15--------------------------------|
|--------------------------|-----------------------------------------|
|--------------------------|-----------------------------------------|
|
| Gtrs IV, V
|  E  E  H.                   Q.             E       +E    E     E E
|--------------------------|-----------------------------------------|
|--------------------------|-----------------------------------------|
|--7--7--------------------|-----------------------------------------|
|--7--7--------------------|-----------------------------------------|
|--5--5--------------------|----------------/8-------(8)---7-----5-7-|
|--------------------------|-----------------------------------------|


  Bb5    N.C.
                                                                 ~~
    E  E  E   E  +E   E  +E   E    +E  S S S S S S  S   S  S  S  Q
|-/20-18------------------------|----------8-6-----13-----------------|
|--------18---------------------|--------------6-------13-------------|
|------------19-(19)------------|--------7-------7--------10----------|
|--------------------20-(20)-19-|-(19)S8---------------------10-12----|
|-------------------------------|-------------------------------------|
|-------------------------------|-------------------------------------|
|
|   E  E  H.                        E  E   E   E   +E      E     E E
|-------------------------------|-------------------------------------|
|-------------------------------|-------------------------------------|
|---3--3------------------------|-------------------------------------|
|---3--3------------------------|--------------3---(3)----------------|
|---1--1------------------------|---3--5---1---------------1-----3-5--|
|-------------------------------|-------------------------------------|


  C5
                                                                              ~~
   S  S  S  S  S  S  S  S  S  S  S  S  S  S  S  S    S   S  S  S  S  S  S  S  H
|-------------------------20-15-------18-15-------|-18--15-20-15-------------------|
|-------------11-14-13-11-------17----------17----|--------------17-15-------------|
|-------10-12----------------------17----------17-|--------------------17-15-------|
|-10-12-------------------------------------------|--------------------------17----|
|-------------------------------------------------|--------------------------------|
|-------------------------------------------------|--------------------------------|
|
|  E     E     H                       E     E      +W
|-------------------------------------------------|--------------------------------|
|-------------------------------------------------|--------------------------------|
|--5-----5-----------------------------5-----5----|-(5)----------------------------|
|--5-----5-----------------------------5-----5----|-(5)----------------------------|
|--3-----3-----------------------------3-----3----|-(3)----------------------------|
|-------------------------------------------------|--------------------------------|


  A5        Dbm        Em                                 Dbm
                                                                               ~~

   |--3---|                                             |---3---|  |---3----|

   E E    E  S  S S  S  E   E  +S   +E.         +E.   S E  E    E  E   E    E  Q
|-----------------9-10-12--17-(17)-(17)b18---|-(17)---9-9-10---10-12--12---12s15----|
|--------------10----------------------------|--------------------------------------|
|----9---10-12-------------------------------|--------------------------------------|
|-11-----------------------------------------|--------------------------------------|
|--------------------------------------------|--------------------------------------|
|--------------------------------------------|--------------------------------------|
|
|  E   E     E    E    +E   E   E          E    +E  E   E    E    +E     E     Q
|--------------------------------------------|--------------------------------------|
|--------------------------------------------|--------------------------------------|
|--2---2-------------------------------------|---------------6----(6)----6-----6----|
|--2---2----------2----(2)--2--------------5-|--(5)-5--------2----(2)----2-----2----|
|--0---0----------4----(4)--4--------------7-|--(7)-7--------4----(4)----4-----4----|
|--------------------------------------------|--------------------------------------|


  D5    N.C.
   S  S  S  S  S   S  S S S  S S S  S  S  S  S
|-17-13-13-12--------12-8-8--------------------|
|-------------13------------10-8------------10-|
|-----------------14-------------9-------10----|
|----------------------------------11-12-------|
|----------------------------------------------|
|----------------------------------------------|
|
|  E     E     H.
|----------------------------------------------|
|----------------------------------------------|
|--7-----7-------------------------------------|
|--7-----7-------------------------------------|
|--5-----5-------------------------------------|
|----------------------------------------------|



   |--3---|  |--3--|  |--3--|  |--3--|  |--3---|  |--3--|  |--3--|  |--3--|

   S   S  S  S  S  S  S  S  S  S  S  S  S   S  S  S  S  S  S  S  S  S  S  S
|--------------------13-10----------10-13--17-13-------13-17-20-17-------17-|
|-13--11-10-------10-------11----11-----------------15----------------18----|
|--------------10-------------12-----------------14----------------19-------|
|-----------12--------------------------------------------------------------|
|---------------------------------------------------------------------------|
|---------------------------------------------------------------------------|
|
|  Q.                          E       +E         E        E        E
|---------------------------------------------------------------------------|
|---------------------------------------------------------------------------|
|---------------------------------------------------------------------------|
|---------------------------------------------------------------------------|
|-----------------------------/8-------(8)--------7--------5--------7-------|
|---------------------------------------------------------------------------|



  Bb5  N.C.
                |--3--|  |--3--|  |--3--|  |--3--|

   Q    +E   E  S  S  S  S  S  S  S  S  S  S  S  S
|-----------------15-18-15-15----15-18-15-15----15-|
|--------------18-------------18-------------18----|
|-19---(19)\---------------------------------------|
|--------------------------------------------------|
|--------------------------------------------------|
|--------------------------------------------------|
|
|  E E   H.
|--------------------------------------------------|
|--------------------------------------------------|
|--3-3---------------------------------------------|
|--3-3---------------------------------------------|
|--1-1---------------------------------------------|
|--------------------------------------------------|


   |--3--|  |--3--|  |--3--|  |--3--|  |-3--| |-3-| |-3-| |-3-|
   S  S  S  S  S  S  S  S  S  S  S  S  S  S S S S S S S S S S S
|----10-13-10-10----10-13-10-10----10-------5-----5-8-6-5-------|
|-13-------------13-------------13--------6-----6---------8-6-5-|
|--------------------------------------7------7-----------------|
|---------------------------------------------------------------|
|---------------------------------------------------------------|
|---------------------------------------------------------------|
|
|  E        E        E        E       +E      E     E     E
|---------------------------------------------------------------|
|---------------------------------------------------------------|
|---------------------------------------------------------------|
|-----------------------------3-------(3)-----------------------|
|--3--------5--------1------------------------1-----3-----5-----|
|---------------------------------------------------------------|



  C5
                                                    |--3--|   |--3--|   |--3--|   |--3--|   |--3--|   |--3--|

   E     +E  Q  S S S S S  S S  S     S   S  S  S   S  S  S   S  S  S   S  S  S   S  S  S   S  S  S   S  S  S
|-10b12-(10)------------8-12-8-12-|-/15--10-12-10-/20-18-17-/19-17-16-/18-16-15-/17-15-14-/17-15-14-/16-14-13-|
|-------------------5-8-----------|---------------------------------------------------------------------------|
|-----------------7---------------|---------------------------------------------------------------------------|
|---------------8-----------------|---------------------------------------------------------------------------|
|---------------------------------|---------------------------------------------------------------------------|
|---------------------------------|---------------------------------------------------------------------------|
|
|  E      E  H          E    E       +W
|---------------------------------|---------------------------------------------------------------------------|
|---------------------------------|---------------------------------------------------------------------------|
|--5------5-------------5----5----|--(5)----------------------------------------------------------------------|
|--5------5-------------5----5----|--(5)----------------------------------------------------------------------|
|--3------3-------------3----3----|--(3)----------------------------------------------------------------------|
|---------------------------------|---------------------------------------------------------------------------|


  A5       Dbm             Em                  Dbm
   E  E  E  E  +E   E  +E   E    +E   E  +Q     S   S  S  S  S  S  S  S
|-12-13-15-18-(18)-17-(17)-12-|-(12)-15-(15)----------------10-12-13-15---||
|-14-15-17-20-(20)-18-(18)-14-|-(14)-17-(17)----8--10-11-13-11-13-15-17---||
|-----------------------------|-----------------9--10-12-14---------------||
|-----------------------------|-------------------------------------------||
|-----------------------------|-------------------------------------------||
|-----------------------------|-------------------------------------------||
|
|  E  E  E  E  +E   E   E   E    +E   E   E  E +E      E     Q
|-----------------------------|-------------------------------------------||
|-----------------------------|-------------------------------------------||
|--2--2-----------------------|--------------6-(6)-----6-----6------------||
|--2--2-----2--(2)--2-------5-|--(5)--5------2-(2)-----2-----2------------||
|--0--0-----4--(4)--4-------7-|--(7)--7------4-(4)-----4-----4------------||
|-----------------------------|-------------------------------------------||


Ohhhhh..... 



(solo do final = Solo da Intro)

Vai assim até o fim

I walk the city lonely, memories that are not passing
by. 
A murderer walks your streets tonight. 
Forgive me for my crimes. 
Don't forget that i was so young, and so scared. 
In the name of God and Country.
  • 1
  • 2
  • 3
  • 4
  • 5
  • 6
  • 7
  • 8
  • 9
  • 10
  • 11
  • 12
    Acordes para:
      Composição: Avenged SevenfoldColaboração e revisão:
      • Pedro_FoxHound
      • chubenchu

      0 comentários

        mostrar mais comentários

        Conseguiu tocar?

        10tocaram0ainda não

        Grave um vídeo tocando M.I.A e mande pra gente!

        00:00 / 00:00
        outros vídeos desta música
        repetirqualidadeautomática
        • automática
        Outro vídeos desta música
          00:00 / 00:00
          automática
          • automática
          1 versão de Tab de baixoexibiçõescontribuições
          fecharplay/pause subir/descer velocidade
            acordes
            fechar
            OK
            Feedback