Cifra Club

Fuel

Avril Lavigne

Cifra: Principal
exibições 18.566
Tom: F#
GUITARRAS 1/2 TOM A BAIXO
1)

Db-----------------------------------------------
Ab--2---2-2---2-2---2---2-2---2-2---5/7-7-7-7\5-5
Eb--3p0-0-3p0-0-3p0-3p0-0-3p0-0-3p0-3/5-5-5-5\3-3

  pm...........................................
intro-de primeira é meio complicado de tirar por ser um
 pouco rapida mas é só escutar bem!!!!!!
"Gimme Fuel, Gimme Fire, Gimme that which I desire"


2)

Db--------7-7-7-5--------8/5-7-7-5
Ab--0h5h7----------0h5h7--------
Eb------------------------------


3)
Db--2----- riff       -2--4--3--2-- riff
Ab--2--5--  2)        -2--2--1--0--  2)
Eb--0--3--            -0----------- duas vezes 

verso


4a)

Db--11h7-----7p5-----5h7-----7p5-----5h7-----7p5-----5h7-----7p5----
Ab--9h7-----7p5-----5h7-----7p5-----5h7-----7p5-----5h7-----7p5----
Eb------0-0-----0-0-----0-0-----0-0-----5-5-----5-5-----5-5-----5-5

       pm..     ...     ...     ...     ...     ...     ...     ...
4b)

Db--5h7-----7p5-----5h7-----7p5-----5h7-----7p5-----5h7-----7p5----
Ab--5h7-----7p5-----5h7-----7p5-----5h7-----7p5-----5h7-----7p5----
Eb------3-3-----3-3-----3-3-----3-3-----5-5-----5-5-----5-5-----5-5

       pm..     ...     ...     ...     ...     ...     ...     ...
4c)

Db--5h7-----7p5-----5h7-----7p5-----5h7-----7p5-----5h7-----7p5----
Ab--5h7-----7p5-----5h7-----7p5-----5h7-----7p5-----5h7-----7p5----
Eb------0-0-----0-0-----0-0-----0-0-----5-5-----5-5-----5-5-----5-5

       pm..     ...     ...     ...     ...     ...     ...     ...
4d)

Db--5h7-----7p5-----5h7-----7p5-----7h9-----9p7-----7h9-----9p7----
Ab--5h7-5-5-7p5-5-5-5h7-5-5-7p5-5-5-7h9-7-7-9p7-7-7-7h9-7-7-9p7----
Eb-----------------------------------------------------------------

       pm..     ...     ...     ...     ...     ...     ...     ...
REFRÃO (OS QUATRO ACIMA)é meio complicado mas é só pratica

Kirk 

5)

Db--7-7--5----------7-7--5------
Ab--7-7--5----------7-7--5-----5
Eb---------0-0-0-0---------0-0-3

        pm......           ... ring
pre-solo e solo


6)

eb------------------------------------------
Bb------------------------------------------
Gb--9--11/12\9--11/12/14\9--11/12/14\12\11\9
Db------------------------------------------
Ab------------------------------------------
Eb------------------------------------------

depois do solo solo (depois do riff4)

----------------------------------------------------------------
solo com wah-wah:


----------------------------------------------------
--14-14--12'------12---------14-14--12'------12-----
:-14-14--12'------12---------14-14--12'------12----: x4
:------------12h14--14-12---------------12h14------:
--------------------------14------------------------
----------------------------------------------------


---12-----12----12---------17-15-14-15-14--------------------
15'--15'-----15'---15'--------------------15-17--------------
-----------------------------------------------14-12-14------
--------------------------------------------------------12---
-------------------------------------------------------------
-------------------------------------------------------------


----------------15-17'`15p12-15p12---------12-12-----12-------12-12--
-----------15-17------------------15p12-15------15p12--15p12--15'15'-
--12--14s16----------------------------------------------------------
14--14---------------------------------------------------------------
---------------------------------------------------------------------
---------------------------------------------------------------------


------------------------------------------
s5-3---s5-3----0--0--0--0-----------------
=----4------4-2'-2'-2'-2'-2'`-------------
---------------=-------------2-2----------
------------------------------------------
------------------------------------------


-----0------0-------------------------------------
s5-3---s5-3---------------------------12--14--15--
---------------14-14-14-14-14p12------14'-16'-17'-
---------------14-14-14-14------14p12-------------
--------------------------------------------------
--------------------------------------------------


---12---12--------12--------12------15p12--12------15p12--12------
15'--15'--15p12-15'-15p12-15'-15p12------15'-15'p12-----15'-15'p12
------------------------------------------------------------------
------------------------------------------------------------------
------------------------------------------------------------------
------------------------------------------------------------------


------------------------------------------------------------
------------------------------------------------------------
------11-12------11-12-s14---11-12-s14-12p11-12--p11--11----
s14---------14------------14------------------------14------
------------------------------------------------------------
------------------------------------------------------------


------------------------------------------------------------
------------------------------------------------------------
------11-12-----------11-12-s14-----11-12-s14-s16-16--------
12s14-------14--14-14----------14---------------------------
------------------------------------------------------------
------------------------------------------------------------
Acordes para:
    Composição: James Hetfield / Kirk Hammett / Lars UlrichColaboração e revisão:
    • felipe salem

    0 comentários

      mostrar mais comentários

      Conseguiu tocar?

      0tocaram0ainda não

      Grave um vídeo tocando Fuel e mande pra gente!

      00:00 / 00:00
      outros vídeos desta música
      repetirqualidadeautomática
      Outro vídeos desta música
        00:00 / 00:00
        automática
        OK