Cifra Club

Aprenda

Everyone

Backstreet Boys

Cifra: Principal (violão e guitarra)
tom: G
e|---0---|---2---|---2---|---2---| 
B|---1---|---3---|---2---|---2---| 
G|---0---|---4---|---3---|---3---| 
D|---2---|---2---|---4---|---2---| 
A|---0---|---2---|--(4)--|--(4)--| 
E|---3---|--(2)--|--(2)--|--(2)--| 

E|-----1------------------------------------------
B|-3-4---1---1-3-4-------1-3-4-3-1----------------
G|-----------------3---3--------------------------
D|------------------------------------------------
A|------------------------------------------------
E|------------------------------------------------


We’ve been through the days of thunder
Some people said we don’t belong
They try to pull us under
But here we stand together and were imillions strong

Let’s get on with the show (let’s get started)
Turn the lights down low (turn the lights down low)
You were there from the start (you were there from the start)
We know who you are

And this one goes out to…

CHORUS

Everyone, everyone, everyone
So this one goes out to you
Everyone
we’re standing strong
'Cause of what you’ve done
And this one goes out to you

We’ve been inside the circus
We took the pleasure with the pain
I guess there’s something about us
Whatever comes around we’ll always stay the same, oh yeah

Let’s get on with the show (oh, let’s get started)
Turn the lights down low (turn the lights down low)
You were there from the start (you were there)
We know who you are
We know who you are

CHORUS - repeat

Now we’re minutes away
'Til it’s time to play
Our heartbeats are rising, they’re letting you in
Time for the show to begin

We, we’re standing strong 'cause of what you’ve done
This one goes out to you, you, you
You make us feel like we’ve just begun
And this one goes out to you

CHORUS - repeat
Composição de Andreas Carlsson / Kristian Lundin
Colaboração e revisão:
  • roberto braick
7.063 exibições
    • ½ Tom
    • A
    • Bb
    • B
    • C
    • Db
    • D
    • Eb
    • E
    • F
    • F#
    • G
    • Ab
  • Adicionar à lista

    0 comentários

    Ver todos os comentários

    Conseguiu tocar?

    0 Tocaram 0 Ainda não

    Grave um vídeo tocando Everyone e nos envie!

    00:00 / 00:00
    Outros vídeos desta música
    Repetir Qualidade Automático
    Outros vídeos desta música
    00:00 / 00:00
    Automático

    Cifra Club Pro

    Aproveite o Cifra Club com benefícios exclusivos e sem anúncios
    Cifra Club Pro
    Aproveite o Cifra Club com benefícios exclusivos e sem anúncios
    OK