Cifra Club

Lay Down

Bad English

Cifra: Principal (violão e guitarra)
Selo Cifra Club: esta cifra foi revisada para atender aos critérios oficiais da nossa Equipe de Qualidade.
tom: Bm
D5       X X 0 2(3)X 
C5/G     X X X X 8 8 
C/E      X X 14 12 13 X 
G/D      X X 12 12 12 X
D5       X X 12 14 15 X
A        5 7 7 6 5 5 
D        X 5 7 7 7 X
Dsus2    X 5 7 7 5 X
E        X 7 9 9 9 X

Guitar 3

D5       X X 0 2(3)X
C5/G     X X X X 8 8 
C/G      X X 5 5 5 X
G/D      X X 0 0 0 X
G5/D     X X 0 0 3 3
A5       X 0 2 2 5 5
Dsus2    X X 0 2 3 0
E        0 2 2 1 0 0
F#       2 4 4 3 X X  



===========================================================================================================


[Intro] Electric Guitar 1

        D5                         Full                                   Full
E|------------------------------------------------------------------------------------------------------|
B|-----(3)-(3)--(3)-(3)--(3)-(3)--------------(3)----------(3)--(3)-(3)---------------------------------|
G|---X--2---2----2---2----2---2----------------2----X---X---2----2---2----------------------------------|
D|---X--0---0----0---0----0---0--0--b--0-0-3-p-0----X---X---0----0---0---0--b--0--0---------------------|
A|----------------------------------3---------------------------------------3---------------------------|
E|------------------------------------------------------------------------------------------------------|


Electric Guitar 2

E|-----------------------------------------------------------------------8-----10-----------------------|
B|------------------------------------------------------------------------------------------------------|
G|------------------------------------------------------------------------------------------------------|
D|------------------------------------------------------------------------------------------------------|
A|------------------------------------------------------------------------------------------------------|
E|------------------------------------------------------------------------------------------------------|


  Electric Guitar 3
                                                                           Full
E|------------------------------------------------------------------------------------------------------|
B|------------------------------------------------------------------------------------------------------|
G|------------------------------------------------------------------------------------------------------|
D|--------------------------------------------------------------------------b--0--0---------------------|
A|--------------------------------------------------------------------------3---------------------------|
E|------------------------------------------------------------------------------------------------------|


Electric Guitar 1
        D5                     Full                                   Full
E|--------------------------------------------------------------------------------------------------|
B|-----(3)--(3)-(3)--(3)-(3)--------------(3)-------X--(3)--(3)-(3)---------------------------------|
G|------2----2---2----2---2----------------2----X---X---2----2---2----------------------------------|
D|--3-p-0----0---0----0---0--0--b--0-0-3-p-0----X---X---0----0---0--0--b--0-0-----------------------|
A|------------------------------3--------------------------------------3----------------------------|
E|--------------------------------------------------------------------------------------------------|
                             Mama !!                                                            I'll....

Electric Guitar 2
                                                             .......trill.....Full  S
E|-----------------------------------------------------------8--5--8--5--8--5--8--5-\---------------|
B|-----------------------------------------------------------------------------b--------------------|
G|--------------------------------------------------------------------------------------------------|
D|--------------------------------------------------------------------------------------------------|
A|--------------------------------------------------------------------------------------------------|
E|--------------------------------------------------------------------------------------------------|

Electric Guitar 3
                                  Full                                     Full
E|---------------------------------------------------------------------------------------------------|
B|-------X----------------------------------X--------------------------------------------------------|
G|-------2----------------------------------2--------------------------------------------------------|
D|---3-p-0-----------------------b--0-0-3-p-0---------------------------b--0--0----------------------|
A|-------------------------------3--------------------------------------3----------------------------|
E|---------------------------------------------------------------------------------------------------|


==========================================================================================================


[Verse 1] Electric Guitar 1
                                                                    
       D5                      Full                               Full    C5/G                 Full
E|-------------------------------------------------------------------------8--8---8--8---8--8------------|
B|-----(3)-(3)-(3)-(3)-(3)----------------(3)-------X--(3)--(3)-(3)--------8--8---8--8---8--8------------|
G|------2---2---2---2---2------------------2----X---X---2----2---2---------X--X---X--X---X--X--------2---|
D|--3-p-0---0---0---0---0----0--b--0-0-3-p-0----X---X---0----0---0--------------------------------b--0---|
A|------------------------------3-----------------------------------b-3-3----------------------0--3------|
E|------------------------------------------------------------------5------------------------------------|
 ...be there in the morning           When you can see some light        I'll b jus like ur angel  I'll...



Electric Guitars 2
   N.C.
E|-------------------------------------------------------------------------------------------------------|
B|-------------------------------------------------------------------------------------------------------|
G|-------------------------------------------------------------------------------------------------------|
D|-------------------------------------------------------------------------------------------------------|
A|-------------------------------------------------------------------------------------------------------|
E|-------------------------------------------------------------------------------------------------------|


Electric Guitar 3

                               Full                                 Full    C5/G               Full
E|--------------------------------------------------------------------------8--8-------------------------|
B|-------X----------------------------------X-------------------------------8--8-------------------------|
G|-------2----------------------------------2-------------------------------X--X--------------------2----|
D|---3-p-0-----------------------b--0-0-3-p-0----------------------------------------------------b--0----|
A|-------------------------------3------------------------------------b--3-----------------------3-------|
E|--------------------------------------------------------------------5----------------------------------|

                           

       D5                      Full                                                             
E|-------------------------------------------------------------------------------------------------------|
B|-----(3)-(3)-(3)-(3)-(3)-------------------------------------------------------------------------------|
G|------2---2---2---2---2--------------------------------------------------------------------------------|
D|--3-p-0---0---0---0---0----0--b--0--0------------------------------------------------------------------|
A|------------------------------3------------------------------------------------------------------------|
E|-------------------------------------------------------------------------------------------------------|
 ...be your guiding light       Gonna .....


Electric Guitar 2

E|-------------------------------------------------------------------------------------------------------|
B|---------------------10--8---------8-------------------------------------------------------------------|
G|----------------------------10--7-----10--7------------------------------------------------------------|
D|-------------------------------------------------------------------------------------------------------|
A|-------------------------------------------------------------------------------------------------------|
E|-------------------------------------------------------------------------------------------------------|


Electric Guitar 3

E|-------------------------------------------------------------------------------------------------------|
B|------X--------------------------------------X---------------------------------------------------------|
G|------2--------------------------------------2---------------------------------------------------------|
D|--3-p-0-------------------------b--0--0--3-p-0---------------------------------------------------------|
A|--------------------------------3----------------------------------------------------------------------|
E|-------------------------------------------------------------------------------------------------------|


 Electric Guitar 1                   
  
       D5                          Full                                    C5/G                 Full
E|---------------------------------------------------------------------------8--8---8--8---8--8-----------|
B|-----(3)-(3)-(3)-(3)-(3)----------------(3)-------X--(3)--(3)-(3)----------8--8---8--8---8--8-----------|
G|------2---2---2---2---2------------------2----X---X---2----2---2-----------X--X---X--X---X--X--------2--|
D|--3-p-0---0---0---0---0----0--b--0-0-3-p-0----X---X---0----0---0----------------------------------b--0--|
A|------------------------------3-------------------------------------b-3-3----------------------0--3-----|
E|--------------------------------------------------------------------5-----------------------------------|
....wake you up  &  connect ur dots   You make it all seem worth-while   I'll b there just 4u girl



Electric Guitar 2
       N.C.
E|-------------------------------------------------------------------------------------------------------|
B|-------------------------------------------------------------------------------------------------------|
G|-------------------------------------------------------------------------------------------------------|
D|-------------------------------------------------------------------------------------------------------|
A|-------------------------------------------------------------------------------------------------------|
E|-------------------------------------------------------------------------------------------------------|


Electric Guitar 3

                               Full                                  Full    C5/G
E|---------------------------------------------------------------------------8--8------------------------|
B|-------X----------------------------------X--------------------------------8--8------------------------|
G|-------2----------------------------------2--------------------------------X--X------------------------|
D|---3-p-0-----------------------b--0-0-3-p-0------------------------------------------------------b--0--|
A|-------------------------------3-------------------------------------b--3------------------------3-----|
E|---------------------------------------------------------------------5---------------------------------|


 
 Electric Guitar 1                         

       D5                                                                                     
E|-------------------------------------------------------------------------------------------------------|
B|-----(3)----(3)-(3)------------------------------------------------------------------------------------|
G|------2------2---2----2-2-2-2-2--2--2------------------------------------------------------------------|
D|--3-p-0------0---0----0-0-0-0-0--0--0------------------------------------------------------------------|
A|-------------------------------------------------------------------------------------------------------|
E|-------------------------------------------------------------------------------------------------------|
    I'm gonna make you smile         Must Be... 



 Electric Guitar 2

          Full
E|---------b----------------------------------------------------------------------------------------------|
B|---------13----------10--8------------------------------------------------------------------------------|
G|----------------------------10--7-----------------------------------------------------------------------|
D|-----------------------------------10--9--7-------------------------------------------------------------|
A|--------------------------------------------------------------------------------------------------------|
E|--------------------------------------------------------------------------------------------------------|



Electric Guitar 3
      
E|-------------------------------------------------------------------------------------------------------|
B|------X------------------------------------------------------------------------------------------------|
G|------2------------------------------------------------------------------------------------------------|
D|--3-p-0------------------------------------------------------------------------------------------------|
A|-------------------------------------------------------------------------------------------------------|
E|-------------------------------------------------------------------------------------------------------|


=========================================================================================================== 


[Pre-Chorus 1] Electric Guitar 1

     C/E  G/D               C/E  G/D  C/E  D5        C/E  G/D               C/E  G/D  C/E  D5                 
E|---X----X-----------------X----X----X----X----------X----X-----------------X----X----X----X------------|
B|---13---12----------------13---12---13---15---------13---12----------------13---12---13---15-----------|
G|---12---12----------------12---12---12---14---------12---12----------------12---12---12---14-----------|
D|---14---12----------------14---12---14---12---------14---12----------------14---12---14---12-----------|
A|-------------------------------------------------------------------------------------------------------|
E|-------------------------------------------------------------------------------------------------------|
 ....Love      What are we think--ing of      Must be Love              Just because              Yeah....

 
Electric Guitar 2
              
E|------------------------------------16---14-------------------------------------------------------------|
B|--------------------------------------------16----------------------------------------------------------|
G|--------------------------------------------------------------------------------------------------------|
D|--------------------------------------------------------------------------------------------------------|
A|--------------------------------------------------------------------------------------------------------|
E|--------------------------------------------------------------------------------------------------------|


Electric Guitar 3
                                                                                       
    C/G  G/D                 C/G  G/D  1/4  ~~~       C/G  G/D                 C/G  G/D  1/4   
E|---X----X-------------------X----X-------------------X----X-------------------X----X--------------------|
B|---5----0-------------------5----0-------------------5----0-------------------5----0--------------------|
G|---5----0-------------------5----0-------------------5----0-------------------5----0----b---------------|
D|---5----0-------------------5----0----b---v----------5----0-------------------5----0----3-p-0-----------|
A|---X----X-------------------X----X----3---5----------X----X-------------------X----X--------------------|
E|--------------------------------------------------------------------------------------------------------|



Electric Guitar 1
       D5                          Full                                   Full
E|-------------------------------------------------------------------------------------------------------|
B|-----(3)-(3)--(3)-(3)--(3)-(3)--------------(3)-(3)---X--(3)--(3)-(3)----------------------------------|
G|------2---2----2---2----2---2----------------2---2----X---2----2---2-----------------------------------|
D|--3-p-0---0----0---0----0---0--0--b--0-0-3-p-0---0----X---0----0---0--0--b--0-0------------------------|
A|----------------------------------3--------------------------------------3-----------------------------|
E|-------------------------------------------------------------------------------------------------------|
                                                                                  I'm ...............

Electric Guitar 2
                  ~~~~~~~~~~~~                        ~~~~~~~~~~~~       1/2
E|-------------------------------------------------------------------------------------------------------|
B|---------------v------------------------------------v--------------------------------------------------|
G|---------------7------------------------------------7--------------------------------------------------|
D|----------------------------------------------------------------7-\-5--3-b-p-0-------------------------|
A|-------------------------------------------------------------------------------------------------------|
E|-------------------------------------------------------------------------------------------------------|


Electric Guitar 3
                                  Full                                     Full
E|---------------------------------------------------------------------------------------------------|
B|-------X-------------------------------------X-----------------------------------------------------|
G|-------2-------------------------------------2-----------------------------------------------------|
D|---3-p-0--------------------------b--0-0-3-p-0-----------------------------b--0--0-----------------|
A|----------------------------------3----------------------------------------3-----------------------|
E|---------------------------------------------------------------------------------------------------|


===========================================================================================================



[Verse 2] Electric Guitar 1

       D5                      Full                               Full    C5/G               Full
E|-------------------------------------------------------------------------8--8---8--8---8--8------------|
B|-----(3)-(3)-(3)-(3)-(3)----------------(3)-------X--(3)--(3)-(3)--------8--8---8--8---8--8------------|
G|------2---2---2---2---2------------------2----X---X---2----2---2---------X--X---X--X---X--X--------2---|
D|--3-p-0---0---0---0---0----0--b--0-0-3-p-0----X---X---0----0---0--------------------------------b--0---|
A|------------------------------3-----------------------------------b-3-3----------------------0--3------|
E|------------------------------------------------------------------5------------------------------------|
 ...gonna catch a fast train           I'll be there over-night     U can meet me at the station   and..



Electric Guitars 2

   N.C.
E|-------------------------------------------------------------------------------------------------------|
B|-------------------------------------------------------------------------------------------------------|
G|-------------------------------------------------------------------------------------------------------|
D|-------------------------------------------------------------------------------------------------------|
A|-------------------------------------------------------------------------------------------------------|
E|-------------------------------------------------------------------------------------------------------|


Electric Guitar 3

                               Full                                 Full    C5/G
E|--------------------------------------------------------------------------8--8-------------------------|
B|-------X----------------------------------X-------------------------------8--8-------------------------|
G|-------2----------------------------------2-------------------------------X--X--------------------2----|
D|---3-p-0-----------------------b--0-0-3-p-0----------------------------------------------------b--0----|
A|-------------------------------3------------------------------------b--3-----------------------3-------|
E|--------------------------------------------------------------------5----------------------------------|


 Electric Guitar 1 
                         
        D5                      Full                                                             
E|-------------------------------------------------------------------------------------------------------|
B|-----(3)-(3)-(3)-(3)-(3)-------------------------------------------------------------------------------|
G|------2---2---2---2---2--------------------------------------------------------------------------------|
D|--3-p-0---0---0---0---0----0--b--0--0------------------------------------------------------------------|
A|------------------------------3------------------------------------------------------------------------|
E|-------------------------------------------------------------------------------------------------------|
...give me a kiss and tell me it's alright          Gonna............


Electric Guitar 2

                                    1/4   ~~~~~~~~
E|-------------------------------------------------------------------------------------------------------|
B|---------------------10--8------8--b---v---------------------------------------------------------------|
G|----------------------------10-----10--7---------------------------------------------------------------|
D|-------------------------------------------------------------------------------------------------------|
A|-------------------------------------------------------------------------------------------------------|
E|-------------------------------------------------------------------------------------------------------|


Electric Guitar 3

E|-------------------------------------------------------------------------------------------------------|
B|------X--------------------------------------X---------------------------------------------------------|
G|------2--------------------------------------2---------------------------------------------------------|
D|--3-p-0-------------------------b--0--0--3-p-0---------------------------------------------------------|
A|--------------------------------3----------------------------------------------------------------------|
E|-------------------------------------------------------------------------------------------------------|


 Electric Guitar 1                   
  
       D5                      Full                                Full   C5/G                  Full
E|-------------------------------------------------------------------------8--8---8--8---8--8------------|
B|-----(3)-(3)-(3)-(3)-(3)----------------(3)-------X--(3)--(3)-(3)--------8--8---8--8---8--8------------|
G|------2---2---2---2---2------------------2----X---X---2----2---2---------X--X---X--X---X--X--------2---|
D|--3-p-0---0---0---0---0----0--b--0-0-3-p-0----X---X---0----0---0--------------------------------b--0---|
A|------------------------------3-----------------------------------b-3-3----------------------0--3------|
E|------------------------------------------------------------------5------------------------------------|
....count every moment          I'm walking in my sleep           I'm gonna fill u up real deep girl



Electric Guitar 2

       N.C.
E|-------------------------------------------------------------------------------------------------------|
B|-------------------------------------------------------------------------------------------------------|
G|-------------------------------------------------------------------------------------------------------|
D|-------------------------------------------------------------------------------------------------------|
A|-------------------------------------------------------------------------------------------------------|
E|-------------------------------------------------------------------------------------------------------|


Electric Guitar 3

                              Full                                  Full    C5/G
E|--------------------------------------------------------------------------8--8------------------------|
B|-------X---------------------------------X--------------------------------8--8------------------------|
G|-------2---------------------------------2--------------------------------X--X------------------------|
D|---3-p-0----------------------b--0-0-3-p-0------------------------------------------------------b--0--|
A|------------------------------3-------------------------------------b--3------------------------3-----|
E|--------------------------------------------------------------------5---------------------------------|


 
 Electric Guitar 1                         

       D5                                                                                     
E|-------------------------------------------------------------------------------------------------------|
B|-----(3)----(3)-(3)------------------------------------------------------------------------------------|
G|------2------2---2----2-2-2-2-2--2--2------------------------------------------------------------------|
D|--3-p-0------0---0----0-0-0-0-0--0--0------------------------------------------------------------------|
A|-------------------------------------------------------------------------------------------------------|
E|-------------------------------------------------------------------------------------------------------|
   Fill you up for keeps      Must Be... 



 Electric Guitar 2
                   Full
E|-------------------b-------------------------------------------------------------------------------------|
B|------------------13-------------------------------------------------------------------------------------|
G|--------------------------------------------------------------------------------------------------------|
D|--------------------------------------------------------------------------------------------------------|
A|--------------------------------------------------------------------------------------------------------|
E|--------------------------------------------------------------------------------------------------------|


Electric Guitar 3
      
E|-------------------------------------------------------------------------------------------------------|
B|------X------------------------------------------------------------------------------------------------|
G|------2------------------------------------------------------------------------------------------------|
D|--3-p-0------------------------------------------------------------------------------------------------|
A|-------------------------------------------------------------------------------------------------------|
E|-------------------------------------------------------------------------------------------------------|


============================================================================================================


[Pre-Chorus 2] Electric Guitar 1

     C/E  G/D               C/E  G/D  C/E  D5        C/E  G/D               C/E  G/D  C/E  D5
E|---X----X-----------------X----X----X----X----------X----X-----------------X----X----X----X------------|
B|---13---12----------------13---12---13---15---------13---12----------------13---12---13---15-----------|
G|---12---12----------------12---12---12---14---------12---12----------------12---12---12---14-----------|
D|---14---12----------------14---12---14---12---------14---12----------------14---12---14---12-----------|
A|-------------------------------------------------------------------------------------------------------|
E|-------------------------------------------------------------------------------------------------------|
 ....Love      What are we think--ing of      Must be Love              Just because              Yeah....


Electric Guitar 2                                        ~~~~~~~~
                                       Full              v
E|--------------------------------------16-----15-p-13-h-15-------13----15-p-13---------------------------|
B|---------------------------------------b---------------------------------------15-----------------------|
G|--------------------------------------------------------------------------------------------------------|
D|--------------------------------------------------------------------------------------------------------|
A|--------------------------------------------------------------------------------------------------------|
E|--------------------------------------------------------------------------------------------------------|


Electric Guitar 3

    C/G  G/D                 C/G  G/D  1/4  ~~~       C/G  G/D                 C/G  G/D  1/4 
E|---X----X-------------------X----X-------------------X----X-------------------X----X--------------------|
B|---5----0-------------------5----0-------------------5----0-------------------5----0--------------------|
G|---5----0-------------------5----0-------------------5----0-------------------5----0----b---------------|
D|---5----0-------------------5----0----b---v----------5----0-------------------5----0----3-p-0-----------|
A|---X----X-------------------X----X----3---5----------X----X-------------------X----X--------------------|
E|--------------------------------------------------------------------------------------------------------|


============================================================================================================


[Chorus 1] Electric Guitar 1

                                                       (Let Ring)
     G5                            D5                  A   Upstroke        1/2    D5
E|---X--------X----------------------------------------------5-------------------------------------------|
B|---8--------8--8-------------------------------------------5-------------------------------------------|
G|---7--------7--7-7\-----7---------7---7------------------------------------------7---------------------|
D|---5--------5----5\-----7---------7---7--7------------7-------------------b--0---7----------------4----|
A|------------------------5---------5------5------------7-------------------3------5------5----7---------|
E|------------------------------------------------------5------------------------------------------------|
     L......a......y      d......o....w.....n   your   love                for     me     why don't you


Electric Guitar 2

                N.C.
E|-------------------------------------------------------------------------------------------------------|
B|-------------------------------------------------------------------------------------------------------|
G|-------------------------------------------------------------------------------------------------------|
D|-------------------------------------------------------------------------------------------------------|
A|-------------------------------------------------------------------------------------------------------|
E|-------------------------------------------------------------------------------------------------------|


Electric Guitar 3

    G5/D                1\4  D5                           A5 (Let Ring)
E|---------3---3----------------------------------------------5------------------------------------------|
B|---------3---3-----------(3)-----(3)-(3)--------------------5------------------------------------------|
G|---0--0------0---------b--2-------2---2--2------------2------------------------------------------------|
D|---0--0------0---------3--0-------0------0------b-----2--------------------b----0----------------------|
A|------------------------------------------------3--p--0--------------------3---------------------------|
E|-------------------------------------------------------------------------------------------------------|



Electric Guitar 1
                                                         (Let Ring)                      (Let Ring)
    G5                   D5                              A Upstroke          Full        A Upstroke
E|---X--------X----------------------------------------------5------------------------------5------------|
B|---8--------8--8-------------------------------------------5----------------b-------------5------------|
G|---7--------7--7-7\-----7---------7---7-------------------------------------7--7--5--------------------|
D|---5--------5----5\-----7---------7---7--7------------7-------------------------------7----------------|
A|------------------------5---------5------5------------7-------------------------------7----------------|
E|------------------------------------------------------5-------------------------------5----------------|
     L......a......y      d......o....w.....n   your   love                                 Baby lay.....



Electric Guitar 2

                N.C.
E|-------------------------------------------------------------------------------------------------------|
B|-------------------------------------------------------------------------------------------------------|
G|-------------------------------------------------------------------------------------------------------|
D|-------------------------------------------------------------------------------------------------------|
A|-------------------------------------------------------------------------------------------------------|
E|-------------------------------------------------------------------------------------------------------|


Electric Guitar 3

        G5/D           1\4  D5                          A5
E|---------3---3----------------------------------------------5------------------------------------------|
B|---------3---3-----------(3)-----(3)-(3)--------------------5------------------------------------------|
G|---0--0------0---------b--2-------2---2--2------------2------------------------------------------------|
D|---0--0------0---------3--0-------0------0------b-----2--------------------b----0----------------------|
A|------------------------------------------------3--p--0--------------------3---------------------------|
E|-------------------------------------------------------------------------------------------------------|



Electric Guitar 1

        D5                         Full        D5                           Full
E|-------------------------------------------------------------------------------------------------------|
B|-----(3)-(3)--(3)-(3)--(3)-(3)--------------(3)-(3)---X--(3)--(3)-(3)----------------------------------|
G|------2---2----2---2----2---2----------------2---2----X---2----2---2-----------------------------------|
D|------0---0----0---0----0---0--0--b--0-0-3-p-0---0----X---0----0---0--0--b--0-0------------------------|
A|----------------------------------3--------------------------------------3-----------------------------|
E|-------------------------------------------------------------------------------------------------------|
 ...ur love                                                                     I.......


Electric Guitar 2
                  
E|-------------------------------------------------------------------------------------------------------|
B|------------------6------------------------------------6---------------8\6-----------------------------|
G|------7---7----7-----7----5---7------------7---7----7-----7----5---7-----------------------------------|
D|-------------------------------------------------------------------------------------------------------|
A|-------------------------------------------------------------------------------------------------------|
E|-------------------------------------------------------------------------------------------------------|


Electric Guitar 3
                                  Full                                     Full
E|------------------------------------------------------------------------------------------------------|
B|-------X-------------------------------------X--------------------------------------------------------|
G|-------2-------------------------------------2--------------------------------------------------------|
D|---3-p-0--------------------------b--0-0-3-p-0----------------------------b--0--0---------------------|
A|----------------------------------3---------------------------------------3---------------------------|
E|------------------------------------------------------------------------------------------------------|


==========================================================================================================


[Verse 3] Electric Guitar 1

       D5                      Full        D5                                 C5/G                  Full
E|---------------------------------------------------------------------------8--8---8--8---8--8-----------|
B|-----(3)-(3)-(3)-(3)-(3)----------------(3)-------X--(3)--(3)-(3)----------8--8---8--8---8--8-----------|
G|------2---2---2---2---2------------------2----X---X---2----2---2-----------X--X---X--X---X--X--------2--|
D|--3-p-0---0---0---0---0----0--b--0-0-3-p-0----X---X---0----0---0----------------------------------b--0--|
A|------------------------------3-------------------------------------b-3-3----------------------0--3-----|
E|--------------------------------------------------------------------5-----------------------------------|
 ......get a good connection       right thru you fingertips         every time u look me in the eye


Electric Guitars 2

   N.C.
E|-------------------------------------------------------------------------------------------------------|
B|-------------------------------------------------------------------------------------------------------|
G|-------------------------------------------------------------------------------------------------------|
D|-------------------------------------------------------------------------------------------------------|
A|-------------------------------------------------------------------------------------------------------|
E|-------------------------------------------------------------------------------------------------------|


Electric Guitar 3

                               Full                                 Full    C5/G
E|--------------------------------------------------------------------------8--8-------------------------|
B|-------X----------------------------------X-------------------------------8--8-------------------------|
G|-------2----------------------------------2-------------------------------X--X--------------------2----|
D|---3-p-0-----------------------b--0-0-3-p-0----------------------------------------------------b--0----|
A|-------------------------------3------------------------------------b--3-----------------------3-------|
E|--------------------------------------------------------------------5----------------------------------|


 Electric Guitar 1                          
       D5                          Full                                                             
E|--------------------------------------------------------------------------------------------------------|
B|-----(3)-(3)--(3)-(3)--(3)-(3)--------------------------------------------------------------------------|
G|------2---2----2---2----2---2---------------------------------------------------------------------------|
D|--3-p-0---0----0---0----0---0--0--b--0--0---------------------------------------------------------------|
A|----------------------------------3---------------------------------------------------------------------|
E|--------------------------------------------------------------------------------------------------------|
...I swear I go on a trip           I've ...........


Electric Guitar 2

                     Full              
E|-------------------br-----------------------------------------------------------------------------------|
B|-----------------6----6---------------------------------------------------------------------------------|
G|----------------------------7---------------------------------------------------------------------------|
D|--------------------------------------------------------------------------------------------------------|
A|--------------------------------------------------------------------------------------------------------|
E|--------------------------------------------------------------------------------------------------------|


Electric Guitar 3

E|-------------------------------------------------------------------------------------------------------|
B|------X----------------------------------------X-------------------------------------------------------|
G|------2----------------------------------------2-------------------------------------------------------|
D|--3-p-0---------------------------b--0--0--3-p-0-------------------------------------------------------|
A|----------------------------------3--------------------------------------------------------------------|
E|-------------------------------------------------------------------------------------------------------|


 Electric Guitar 1                   
  
       D5                          Full         D5                            C5/G                Full
E|----------------------------------------------------------------------------8--8---8--8---8--8---------|
B|-----(3)-(3)--(3)-(3)--(3)-(3)--------------(3)-(3)---X--(3)--(3)-(3)-------8--8---8--8---8--8---------|
G|------2---2----2---2----2---2----------------2---2----X---2----2---2--------X--X---X--X---X--X---------|
D|--3-p-0---0----0---0----0---0--0--b--0-0-3-p-0---0----X---0----0---0------------------------------b--0-|
A|----------------------------------3-----------------------------------b--3---------------------0--3----|
E|----------------------------------------------------------------------5--------------------------------|
....been around the world so many times   and ur such a lovely thing    I don't wanna lose this thing we got


Electric Guitar 2
      
E|-------------------------------------------------------------------------------------------------------|
B|------------------------------------------------6------------------------------------------------------|
G|--------------------------------5-h-7--7-----------7---------------------------------------------------|
D|-------------------------------------------------------------------------------------------------------|
A|-------------------------------------------------------------------------------------------------------|
E|-------------------------------------------------------------------------------------------------------|


Electric Guitar 3

                                  Full                                 Full
E|-----------------------------------------------------------------------------8--8----------------------|
B|-------X-------------------------------------X-------------------------------8--8----------------------|
G|-------2-------------------------------------2-------------------------------X--X----------------------|
D|---3-p-0--------------------------b--0-0-3-p-0---------------------------------------------------b--0--|
A|----------------------------------3------------------------------------b--3----------------------3-----|
E|-----------------------------------------------------------------------5-------------------------------|


 
 Electric Guitar 1                         

       D5                                                                                     
E|-------------------------------------------------------------------------------------------------------|
B|-----(3)----(3)-(3)------------------------------------------------------------------------------------|
G|------2------2---2----2-2-2-2-2--2--2------------------------------------------------------------------|
D|--3-p-0------0---0----0-0-0-0-0--0--0------------------------------------------------------------------|
A|-------------------------------------------------------------------------------------------------------|
E|-------------------------------------------------------------------------------------------------------|
  U kno u make my heart sing       Must Be... 


 Electric Guitar 2


       Full Full...Hold...
E|------15---15------------15--13---------------------------------------------------------------------------|
B|--15---b----b--------------------15----------------------------------------------------------------------|
G|--------------------------------------------------------------------------------------------------------|
D|--------------------------------------------------------------------------------------------------------|
A|--------------------------------------------------------------------------------------------------------|
E|--------------------------------------------------------------------------------------------------------|


Electric Guitar 3
      
E|-------------------------------------------------------------------------------------------------------|
B|------X------------------------------------------------------------------------------------------------|
G|------2------------------------------------------------------------------------------------------------|
D|--3-p-0------------------------------------------------------------------------------------------------|
A|-------------------------------------------------------------------------------------------------------|
E|-------------------------------------------------------------------------------------------------------|



==========================================================================================================


[Pre-Chorus 3] Electric Guitar 1

     C/E  G/D               C/E  G/D  C/E  D5        C/E  G/D               C/E  G/D  C/E  D5
E|---X----X-----------------X----X----X----X----------X----X-----------------X----X----X----X------------|
B|---13---12----------------13---12---13---15---------13---12----------------13---12---13---15-----------|
G|---12---12----------------12---12---12---14---------12---12----------------12---12---12---14-----------|
D|---14---12----------------14---12---14---12---------14---12----------------14---12---14---12-----------|
A|-------------------------------------------------------------------------------------------------------|
E|-------------------------------------------------------------------------------------------------------|
 ....Love      What are we think--ing of      Must be Love              Just because              Yeah....


Electric Guitar 2                                        ~~~~~~~~
                                       Full              v
E|--------------------------------------16-----15-p-13-h-15-------13----15-p-13---------------------------|
B|---------------------------------------b---------------------------------------15-----------------------|
G|--------------------------------------------------------------------------------------------------------|
D|--------------------------------------------------------------------------------------------------------|
A|--------------------------------------------------------------------------------------------------------|
E|--------------------------------------------------------------------------------------------------------|


Electric Guitar 3

    C/G  G/D                 C/G  G/D  1/4  ~~~       C/G  G/D                 C/G  G/D  1/4 
E|---X----X-------------------X----X-------------------X----X-------------------X----X--------------------|
B|---5----0-------------------5----0-------------------5----0-------------------5----0--------------------|
G|---5----0-------------------5----0-------------------5----0-------------------5----0----b---------------|
D|---5----0-------------------5----0----b---v----------5----0-------------------5----0----3-p-0-----------|
A|---X----X-------------------X----X----3---5----------X----X-------------------X----X--------------------|
E|--------------------------------------------------------------------------------------------------------|


===========================================================================================================

[Chorus 2] Electric Guitar 1

                                                       (Let Ring)
     G5                   D5                           A    Upstroke        1/2
E|---X--------X----------------------------------------------5-------------------------------------------|
B|---8--------8--8-------------------------------------------5-------------------------------------------|
G|---7--------7--7-7\-----7---------7---7------------------------------------------7---------------------|
D|---5--------5----5\-----7---------7---7--7------------7-------------------b--0---7----------------4----|
A|------------------------5---------5------5------------7-------------------3------5------5----7---------|
E|------------------------------------------------------5------------------------------------------------|
     L......a......y      d......o....w.....n   your   love                to     me     why don't you


Electric Guitar 2

                N.C.
E|-------------------------------------------------------------------------------------------------------|
B|-------------------------------------------------------------------------------------------------------|
G|-------------------------------------------------------------------------------------------------------|
D|-------------------------------------------------------------------------------------------------------|
A|-------------------------------------------------------------------------------------------------------|
E|-------------------------------------------------------------------------------------------------------|


Electric Guitar 3

    G5/D                1\4  D5                           A5
E|---------3---3----------------------------------------------5------------------------------------------|
B|---------3---3-----------(3)-----(3)-(3)--------------------5------------------------------------------|
G|---0--0------0---------b--2-------2---2--2------------2-----3------------------------------------------|
D|---0--0------0---------3--0-------0------0------b-----2--------------------b----0----------------------|
A|------------------------------------------------3--p--0--------------------3---------------------------|
E|-------------------------------------------------------------------------------------------------------|



Electric Guitar 1
                                                         (Let Ring)                      (Let Ring)
    G5                   D5                              A  Upstroke          Full     A   Upstroke
E|---X--------X----------------------------------------------5------------------------------5------------|
B|---8--------8--8-------------------------------------------5----------------b-------------5------------|
G|---7--------7--7-7\-----7---------7---7-------------------------------------7--7--5--------------------|
D|---5--------5----5\-----7---------7---7--7------------7-------------------------------7----------------|
A|------------------------5---------5------5------------7-------------------------------7----------------|
E|------------------------------------------------------5-------------------------------5----------------|
     L......a......y      d......o....w.....n   your   love                        That's right  Baby lay   


Electric Guitar 2

                N.C.
E|-------------------------------------------------------------------------------------------------------|
B|-------------------------------------------------------------------------------------------------------|
G|-------------------------------------------------------------------------------------------------------|
D|-------------------------------------------------------------------------------------------------------|
A|-------------------------------------------------------------------------------------------------------|
E|-------------------------------------------------------------------------------------------------------|


Electric Guitar 3

        G5/D           1\4  D5                          A5
E|---------3---3----------------------------------------------5------------------------------------------|
B|---------3---3-----------(3)-----(3)-(3)--------------------5------------------------------------------|
G|---0--0------0---------b--2-------2---2--2------------2------------------------------------------------|
D|---0--0------0---------3--0-------0------0------b-----2--------------------b----0----------------------|
A|------------------------------------------------3--p--0--------------------3---------------------------|
E|-------------------------------------------------------------------------------------------------------|



Electric Guitar 1
        D5                         Full      D5                          Full
E|-------------------------------------------------------------------------------------------------------|
B|-----(3)-(3)--(3)-(3)--(3)-(3)--------------(3)-(3)---X--(3)--(3)-(3)----------------------------------|
G|------2---2----2---2----2---2----------------2---2----X---2----2---2-----------------------------------|
D|------0---0----0---0----0---0--0--b--0-0-3-p-0---0----X---0----0---0--0--b--0-0------------------------|
A|----------------------------------3--------------------------------------3-----------------------------|
E|-------------------------------------------------------------------------------------------------------|
  ....down your love                 Yeah...                                 This.....                  


Electric Guitar 2
                                                           ~~~~~~~
E|-------------------------------------------------------------------------------------------------------|
B|--------------------------------------------------------v----------------------------------------------|
G|-----------------------------------------------------5--7-\--------------------------------------------|
D|--------------------------------------------------7----------------------------------------------------|
A|-------------------------------------------------------------------------------------------------------|
E|-------------------------------------------------------------------------------------------------------|


Electric Guitar 3
                                  Full                                     Full
E|------------------------------------------------------------------------------------------------------|
B|-------X-------------------------------------X--------------------------------------------------------|
G|-------2-------------------------------------2--------------------------------------------------------|
D|---3-p-0--------------------------b--0-0-3-p-0-----------------------------b--0--0--------------------|
A|----------------------------------3----------------------------------------3--------------------------|
E|------------------------------------------------------------------------------------------------------|


===========================================================================================================
 


[Break] Electric Guitar 1
      
       A   (Let Ring)                             A  (Let Ring)      Dsus2         D
E|---------5------------------------------------------5---------------X------------X---------------------|
B|---------5------------------------------------------5---------------5------------7---------------------|
G|--------------------------------7-----------------------------------7------------7---------------------|
D|-----7--------------------------7---------------7-------------------7------------7---------------------|
A|-----7---------------------7--------------------7-------------------5------------5---------------------|
E|-----5---------------------5--------------------5------------------------------------------------------|
.....time       what do we want to say       In you          I won't stand in your way


Electric Guitar 2
                N.C.
E|-------------------------------------------------------------------------------------------------------|
B|-------------------------------------------------------------------------------------------------------|
G|-------------------------------------------------------------------------------------------------------|
D|-------------------------------------------------------------------------------------------------------|
A|-------------------------------------------------------------------------------------------------------|
E|-------------------------------------------------------------------------------------------------------|


Electric Guitar 3

        A5                  A      D5     1/4 1/4                        Dsus2  D5
E|--------5-----------------0------X-----------------5----------------------0---X---X--------------------|
B|-------5-------------3----2------3-----------------5----------------------3---3---3--------------------|
G|------2--------b-----2----2------2-------b-p----2-------------------------2---2---2--------------------|
D|-----2---------3--0-------2------0-------2-0-b--2-------------------------0---0---0--------------------|
A|----0---------------------0------------------3--0------------------------------------------------------|
E|-------------------------------------------------------------------------------------------------------|


===========================================================================================================


[Guitar Solo 1] Tab for Lead Guitar 2 and Rhythm Guitars 1 and 3 are not quite synchronised due to space

Electric Guitar 1

      E   E                 F#5  D                                       E   E                  F#5  D
E|----X---X------------------X---X---------------------------------------X---X-------------------X---X---|
B|----9---9------------------7---7---------------------------------------9---9-------------------7---7---|
G|----9---9------------------6---7---------------------------------------9---9-------------------6---7---|
D|----9---9------------------4---7---------------------------------------9---9-------------------4---7---|
A|----7---7----------------------5---------------------------------------7---7-----------------------5---|
E|-------------------------------------------------------------------------------------------------------|



Electric Guitar 2

      Full Full                                          1/2    1/2  ~~~~ Full Full
E|-----b-----b----------12-12-----12----12--------------------------------17--17----------17-15---17-15--|
B|----15----15-----------------15----15----15-12-15-12--b------b-----------------------------------------|
G|-----------------------------------------------------14--15-14----12-v---------------------------------|
D|--------------------------------------------------------------------14---------------------------------|
A|-------------------------------------------------------------------------------------------------------|
E|-------------------------------------------------------------------------------------------------------|


Electric Guitar 3

      E   E                   F#  D5                                      E  E                    F# D5
E|----0---0------------------------X--------------------------------------0---0-----------------------X---|
B|----0---0------------------------3--------------------------------------0---0-----------------------3---|
G|----1---1--------------------3---2--------------------------------------1---1-------------------3---2---|
D|----2---2--------------------4---0--------------------------------------2---2-------------------4---0---|
A|----2---2--------------------4------------------------------------------2---2-------------------4-------|
E|----0---0--------------------2------------------------------------------0---0-------------------2-------|




Electric Guitar 1
                          E   E                              F#5  D
E|------------------------X---X-------------------------------X---X---------------------------------------|
B|------------------------9---9-------------------------------7---7---------------------------------------|
G|------------------------9---9-------------------------------6---7---------------------------------------|
D|------------------------9---9-------------------------------4---7---------------------------------------|
A|------------------------7---7-----------------------------------5---------------------------------------|
D|------------------------------------------------------------------------------------
Outros vídeos desta música
    2 exibições
      • ½ Tom
      • Am
      • Bbm
      • Bm
      • Cm
      • C#m
      • Dm
      • Ebm
      • Em
      • Fm
      • F#m
      • Gm
      • G#m
    • Adicionar à lista

    Afinação da cifra

    Afinador online

      0 comentários

      Ver todos os comentários

      Entre para o Cifra Club PRO

      Tenha acesso a benefícios exclusivos no App e no Site

      • Chega de anúncios

      • Badges exclusivas

      • Mais recursos no app do Afinador

      • Atendimento Prioritário

      • Aumente seu limite de lista

      • Ajude a produzir mais conteúdo

      Cifra Club Pro

      Aproveite o Cifra Club com benefícios exclusivos e sem anúncios
      Cifra Club Pro
      Aproveite o Cifra Club com benefícios exclusivos e sem anúncios
      Ops (: Contenido disponible sólo en portugués.
      OK