Cifra Club

Aprenda

A Walk

Bad Religion

Cifra: Principal (violão e guitarra)
tom: F
INTRODUÇÃO: Dm7 Dm7 (nas 3 primeiras cordas)

D C G Bb - (2x)
I'm going for a walk, not the after-dinner kind
I'm gonna use my hands and I'm gonna use my mind

D C G - (4x)
And who the hell are you to tell me what to do?
You can't even tie your own haggard shoes

A  Bb  B  C  A
Your closet is a mess, your backyard's falling down

G A A
And I have no grand ideas or intentions of sticking around

D C G Bb - (4x)
So I'm going for a walk, not the after-dinner kind
I'm gonna use my hands and I'm gonna use my mind
And I'm gonna build a world independent and exempt
All alone I'll be an empire with no mortgage and no rent

D C G - (4x)
And I don't need to live in your stinking zoo
You can't even feed the animals donated to you

A Bb B C A
Your storage sheds are ramshackled, flies decorate the walls

G A A
And you expect me to die here in this shit-filled tiny stall?

Dm7 Dm7
So I'm going for a walk!

(solo)
E|----------------------------------------------
B|-6-6-6-----------6----6-----------------------
G|-------7-7-5-7-5---4~---4-5-5-4-3-3-2---------
D|----------------------------------------------
A|----------------------------------------------
E|----------------------------------------------

E|----------------------------------------------
B|-6-6-6-6-5--6-5-6-5-6-5-8-5-6-5---5-6~--------
G|--------------------------------5-------------
D|----------------------------------------------
A|----------------------------------------------
E|----------------------------------------------

D C G - (4x)       D C G - (4x)
And I know you're watching everything I do
Call me threat to your children, call me socially unglued
Call me master of insanity, unable to relate
Call me lazy, bane, and filthy
Call me montrous reprobate

A

D C G Bb - (4x)
So I'm going for a walk and there's nothing you can do
Because I don't have to live like you
I'm going for a walk, going for a walk....

Dm7 Dm7

gtr 2: 

tok as 7 primeiras notas do solo enquanto vocal fala: I´m going for a walk!
Composição de Greg Graffin
Colaboração e revisão:
  • Lety Ninja
  • Marcos Gubaa
  • andre guerra
31.442 exibições
    • ½ Tom
    • A
    • Bb
    • B
    • C
    • Db
    • D
    • Eb
    • E
    • F
    • F#
    • G
    • Ab
  • Adicionar à lista

    0 comentários

    Ver todos os comentários

    Conseguiu tocar?

    0 Tocaram 0 Ainda não

    Grave um vídeo tocando A Walk e nos envie!

    00:00 / 00:00
    Outros vídeos desta música
    Repetir Qualidade Automático
    Outros vídeos desta música
    00:00 / 00:00
    Automático

    Cifra Club Pro

    Aproveite o Cifra Club com benefícios exclusivos e sem anúncios
    Cifra Club Pro
    Aproveite o Cifra Club com benefícios exclusivos e sem anúncios
    OK