Cifra Club

Honest Goodbye

Bad Religion

Cifra: Principal (violão e guitarra)
tom: A
INTRO:

GUITARRA 1
e---------------------|---------------------|-----------------------|-----------------------|----------|
b---------------------|---------------------|-----------------------|-----------------------|----------|
g-1-2-1------2-1-4-2--|-1-2-1-----2-1-4/6-2-|-1-2-1-------2-1-------|-1-2-1----2-4-2-1-2----|-1-2-1----|
d--------4------------|--------4------------|--------4-4---------4--|--------4--------------|---------4|
a---------------------|---------------------|--------------------4--|-----------------------|----------|
e---------------------|---------------------|-----------------------|-----------------------|----------|

GUITARRA 2

e|-----------------------------|-------------------------|-------------------------| 
b|-----------------------------|-------------------------|-------------------------|
g|-7-7-7-----7---6--6--6-----6-|-------------------------|-7-7-7-----7---9--9-9--9-|
d|-7-7-7-----7---6--6--6-----6-|---4--4-4-4-7--7-----7-7-|-7-7-7-----7---9--9-9--9-|
a|-5-5-5-----5---4--4--4-----4-|---4--4-4-4-7--7-----7-7-|-5-5-5-----5---7--7-7--7-|
e|-----------------------------|---2--2-2-2-5--5-----5-5-|-------------------------|

e|-------------------------|--------------------|------------------------|
b|-------------------------|--------------------|------------------------|
g|------------6--6-----6-6-|-7-7--7-7--6--6-6-6-|------------------------|
d|---7--7-7-7-6--6-----6-6-|-7-7--7-7--6--6-6-6-|--4--4-4-4-7--7-----7-7-|
a|---7--7-7-7-4--4-----4-4-|-5-5--5-5--4--4-4-4-|--4--4-4-4-7--7-----7-7-|
e|---5--5-5-5--------------|--------------------|--2--2-2-2-5--5-----5-5-|

e|---------------------------|--------------------------|
b|---------------------------|--------------------------|
g|-7-7---7-7--9------9--9--9-|------------6--6-----6--6-|
d|-7-7---7-7--9------9--9--9-|---7--7-7-7-6--6-----6--6-|
a|-5-5---5-5--7------7--7--7-|---7--7-7-7-4--4-----4--4-|
e|---------------------------|---5--5-5-5---------------|


VERSO:
GUITAR 3
e|------------------|--------------------|    |--------------------|
b|o-----------------|-------------------o|4x  |--------------------|
g|------------------|--------------------|    |--------------------|
d|--7-7-7-7-6-6-6---|--------------------|    |--------2-2-2-2-2---|
a|o-5-5-5-5-4-4-4-4-|-(4)-4-4-3-3-3-3-3-o|    |-4--4-4-2-2-2-2-2---|
e|----------------2-|-(2)-2-2-1-1-1-1-1--|    |-2--2-2-0-0-0-0-0---|


REFRÃO:
GUITAR 1 e GUITAR 2

|-----------------|-----------------|-----------------|------------------|
|-----------------|-----------------|-----------------|------------------|
|-7-7-7-7-6-6-6-6-|-----------------|-7-7-7-7-9-9-9-9-|---------6-6-6-6--|
|-7-7-7-7-6-6-6-6-|-4-4-4-4-7-7-7-7-|-7-7-7-7-9-9-9-9-|-7-7-7-7-6-6-6-6--|
|-5-5-5-5-4-4-4-4-|-4-4-4-4-7-7-7-7-|-5-5-5-5-7-7-7-7-|-7-7-7-7-4-4-4-4--|
|-----------------|-2-2-2-2-5-5-5-5-|-----------------|-5-5-5-5----------|

|-----------------|-----------------|-----------------|--------------------|
|-----------------|-----------------|-----------------|--------------------|
|-7-7-7-7-6-6-6-6-|-----------------|-7-7-7-7-9-9-x---|-----------6-6-6-6--|
|-7-7-7-7-6-6-6-6-|-4-4-4-4-7-7-7-7-|-7-7-7-7-9-9-x-7-|-(7)-7-7-7-6-6-6-6--|
|-5-5-5-5-4-4-4-4-|-4-4-4-4-7-7-7-7-|-5-5-5-5-7-7-x-7-|-(7)-7-7-7-4-4-4-4--|
|-----------------|-2-2-2-2-5-5-5-5-|---------------5-|-(5)-5-5-5----------|

GUITAR 3 entra fazendo a intro enquanto a 1 e 2 fazendo isso abaixo:

||------------------|------------------||-----------------|-----------------|
||o-----------------|-----------------o||-----------------|-----------------|
||--7-7-7-7-9-9-9-9-|---------6-6-6-6--||-7-7-7-7-6-6-6-6-|-----------------|
||--7-7-7-7-9-9-9-9-|-7-7-7-7-6-6-6-6--||-7-7-7-7-6-6-6-6-|-4-4-4-4-7-7-7-7-|
||o-5-5-5-5-7-7-7-7-|-7-7-7-7-4-4-4-4-o||-5-5-5-5-4-4-4-4-|-4-4-4-4-7-7-7-7-|
||------------------|-5-5-5-5----------||-----------------|-2-2-2-2-5-5-5-5-|

|-----------------|---------------------|
|-----------------|---------------------|
|-7-7-7-7-9-9-x---|-------------6-6-6-6-|
|-7-7-7-7-9-9-x-7-|-(7)-7-7-x-7-6-6-6-6-|
|-5-5-5-5-7-7-x-7-|-(7)-7-7-x-7-4-4-4-4-|
|---------------5-|-(5)-5-5-x-5---------|


Verso  +1x
Refrão +1x

Composição de Brett Gurewitz / Greg Graffin
Colaboração e revisão:
  • Rodrigo Trevisan
4.532 exibições
    • ½ Tom
    • A
    • Bb
    • B
    • C
    • Db
    • D
    • Eb
    • E
    • F
    • F#
    • G
    • Ab
  • Adicionar à lista

    0 comentários

    Ver todos os comentários

    Conseguiu tocar?

    0 Tocaram 0 Ainda não

    Grave um vídeo tocando Honest Goodbye e nos envie!

    00:00 / 00:00
    Outros vídeos desta música
    Repetir Qualidade Automático
    Outros vídeos desta música
    00:00 / 00:00
    Automático

    Cifra Club Pro

    Aproveite o Cifra Club com benefícios exclusivos e sem anúncios
    Cifra Club Pro
    Aproveite o Cifra Club com benefícios exclusivos e sem anúncios
    OK