Cifra Club

Aprenda

Modern Man

Bad Religion

Cifra: Principal (violão e guitarra)
tom: Ab
LEGENDA: BASE: \ = slide
               |: ... :| = repete o compasso uma vz
         
         SOLO: x = nota "abafada"
               (...) = nota fantasma
               \ = slide
               h = hammer-on
               p = pull-off
               ´= bend (um tom)         
Base: 
(intro):   ::  F5  :  Db5  :  Ab5  :  Eb5  :  F  :  Db  :  Ab5  :  Db5 \ Eb5  :    


(verse):   ::  F5  :  C#  :  F  :  C#  :  F  :  G#5  :  C#5  \  F  ::  


(chorus):  ::  F5 Ab5  :  Eb5 F5 Eb5 F5  ::  F5 Ab5  :  Eb5 F5 Eb5 F5  :  F5 Ab5  :  Db5  \  Eb5  ::  F  :  Db  ::  


(verse):   ::  F5  :  C#  :  F  :  C#  :  F  :  G#5  :  C#5  \  F  ::


(solo):    ::  F  :  Db  ::  F  :  Ab5  :  Db5  :  F  :


(chorus):  ::  F5 Ab5  :  Eb5 F Eb F5  ::  F5 Ab5  :  Eb5 F5 Eb5 F5  :  F5 Ab5  
::  Db5  \  Eb5  ::  Db5  \  Eb5 \:  F  |  Db  :|  F  |  Ab  |  Db  |  F5 - ||  



Solo: 
(intro):  |---------------------------------16p15-13-16p15-13-16p15-13-15--16--15-13----|
          |-----------------------13--13h14------------------------------------------16-|
          |------------13---------------------------------------------------------------|
          |-x-x--13\15-----(13)15-------------------------------------------------------|
          |-----------------------------------------------------------------------------|
          |-----------------------------------------------------------------------------|

          |-----------13----------------------------------------------------------------|
          |-14-13-13-----16------------------------13-----------------------------------|
          |-------15´-------15´-13----13-15´-15-13-----15-13-12-13----------------------|
          |------------------------15---------------------------------------------------|
          |-----------------------------------------------------------------------------|
          |-----------------------------------------------------------------------------|

(solo): E|-----------------------------------------------------------------------------|
        B|-----------------13----------------------------------------------------------|
        G|-------13-----------15h17-16-15-15h17-16-15h17-16-15-15h17-16-15h17p15p14-13-|
        D|-13\15----(13)15-------------------------------------------------------------|
        A|-----------------------------------------------------------------------------|
        E|-----------------------------------------------------------------------------|

        E|------------------------------16p15-13-16p15-13-16p15-13-15h16-15-13-13-13-15|
        B|-----------------------------------------------------------------------------|
        G|-15p14-13-15-15p14-13h15´-13-------------------------------------------------|
        D|-----------------------------------------------------------------------------|
        A|-----------------------------------------------------------------------------|
        E|-----------------------------------------------------------------------------|

        E|-15-15-15-16-16-16-16-18-18-18-18--18´--18´----------------------------------|
        B|-----------------------------------------------------------------------------|
        G|-----------------------------------------------------------------------------|
        D|-----------------------------------------------------------------------------|
        A|-----------------------------------------------------------------------------|
        E|-----------------------------------------------------------------------------|

(final): E|-17--17--17--17--17--17--17--17--17--17--17--17--17--17--17--17--17--17--17-|
         B|-13--13--13--13--13--13--13--13--13--13--13--13--13--13--13--13--13--13--13-|
         G|-15´-15´-15´-15´-15´-15´-15´-15´-15´-15´-15´-15´-15´-15´-15´-15´-15´-15´-15´|
         D|----------------------------------------------------------------------------| +10 vezes
         A|----------------------------------------------------------------------------|
         E|----------------------------------------------------------------------------|
Composição de Greg Graffin
Colaboração e revisão:
  • Raphael
6.816 exibições
    • ½ Tom
    • A
    • Bb
    • B
    • C
    • Db
    • D
    • Eb
    • E
    • F
    • F#
    • G
    • Ab
  • Adicionar à lista

    0 comentários

    Ver todos os comentários

    Conseguiu tocar?

    0 Tocaram 0 Ainda não

    Grave um vídeo tocando Modern Man e nos envie!

    00:00 / 00:00
    Outros vídeos desta música
    Repetir Qualidade Automático
    Outros vídeos desta música
    00:00 / 00:00
    Automático

    Cifra Club Pro

    Aproveite o Cifra Club com benefícios exclusivos e sem anúncios
    Cifra Club Pro
    Aproveite o Cifra Club com benefícios exclusivos e sem anúncios
    OK