Cifra Club

Aprenda

Argos

Bamboo

Cifra: Principal (violão e guitarra)
tom: D
Sound Track:Rounin
Date Tabbed:May,2006
Guitar Tabber:Ryan Manongdo/16/m/Montalban Rizal
              *(Friendster&YM)
             
For your questions or suggestions,just post in friendster comment,PM or mail me.

*:
~  - let it ring
.  - palm muting
h  - hammer-on
p  - pull-off
/\ - slide

*:Standard(Normal)

Intro:
Gtr.1
e|------------------------|
B|------------------------|
G|------------------------|
D|-7~----7~----7~----7~---|
A|-5~----5~----5~----5~---|
E|------------------------|

Gtr.2
e|-------------------------------------------------------------------|
B|-------------------------------------------------------------------|
G|-6h7p6-6h7p6-6h7p6-6h7p6-9-9/6---6h7p6-6h7p6-6h7p6-6h7p6-10-10\6---| 2x
D|-------------------------------------------------------------------|
A|-------------------------------------------------------------------|
E|-------------------------------------------------------------------|

Verse:
Gtr.1
e|-------------|
B|-------------|
G|-------------| 4x
D|-7777--------|
A|-5555-3333---|
E|------1111---|
   xxxx xxxx

Gtr.2
e|----------------------------|
B|----------------------------|
G|-7777-6666--10101010-9999---| 4x
D|-xxxx-xxxx---x-x-x-x-xxxx---|
A|-5555-4444---8-8-8-8-7777---|
E|----------------------------|

Repeat Intro:

Repeat verse:

Chorus:
e|-----------------------------------------      ------|
B|-----------------------------------------      ------|
G|----------------------------------------- 4x   ------|
D|----------------------------------------- Then -7~---|
A|---5-4-----------0-3-----5-4-------------      -7~---|
E|-0-----5-3--2-3--------0-----5-2-3--2-5--      -5~---|

REpeat Intro:

Before Bridge:Play Verse(Gtr.2 Only)

Bridge(Solo):
Gtr.1
e|---------------------|
B|---------------------|
G|-7~---5~-------------| 4x
D|-7~---5~---4~---5~---|
A|-5~---3~---4~---5~---|
E|-----------2~---3~---|

e|---------------------------------------------
B|---------------------------------------------
G|-7b-----9/10b---------11/12b--------13/14b---
D|---------------------------------------------
A|-----8b--------9/10b---------10/12b----------
E|---------------------------------------------

--------------------------------8108108108108101081081081081010/12----
----------------------------------------------------------------------
-5h75h75h75h75h75h7--7h97h97h9----------------------------------------
----------------------------------------------------------------------
----------------------------------------------------------------------
----------------------------------------------------------------------

-8/101010101010-8h108h108h108h108h108h108h108h108h10-12/15b-14b---10-13-12---------
---------------------------------------------------------------------------13------
------------------------------------------------------------------------------12---
-----------------------------------------------------------------------------------
-----------------------------------------------------------------------------------
-----------------------------------------------------------------------------------

----------------------4545454545----------------------------------------8-10-1010810108101010---|
-6------6---------7-8---------------------------------------------------------------------------|
-5--7b--5--7p6-7b----------------9-7-9-7b----------------------9-7-9-7b-------------------------|
--------------------------------------------777-------------10----------------------------------|
--------------------------------------------555--7-4-7-8-10-------------------------------------|
------------------------------------------------------------------------------------------------|
                                            xxx

Repeat Chorus:

Last Chord:
e|-------10Feedback---|
B|--------------------|
G|--------------------|
D|-7~-----------------|
A|-7~-----------------|
E|-5~-----------------|

End...



I cried for days
Wasn't sure how i got to be here
Brought my knees
Wasn't the fallacy that's inside of me
Peace i give you, hey
. 
Compositor não encontrado.
525 exibições
    • ½ Tom
    • A
    • Bb
    • B
    • C
    • Db
    • D
    • Eb
    • E
    • F
    • F#
    • G
    • Ab
  • Adicionar à lista

    0 comentários

    Ver todos os comentários

    Conseguiu tocar?

    0 Tocaram 0 Ainda não

    Grave um vídeo tocando Argos e nos envie!

    00:00 / 00:00
    Outros vídeos desta música
    Repetir Qualidade Automático
    Outros vídeos desta música
    00:00 / 00:00
    Automático

    Cifra Club Pro

    Aproveite o Cifra Club com benefícios exclusivos e sem anúncios
    Cifra Club Pro
    Aproveite o Cifra Club com benefícios exclusivos e sem anúncios
    OK