Cifra Club

Aprenda

Dançando Calypso

Banda Calypso

Cifra: Principal (violão e guitarra)
Tom: C
[Intro] Dm  F  Dm  Gm  A  Dm  A

E|--10----------------10----------------10.---10-10---|
B|--------10----------------10------------------------|
G|--------------10----------------10------------------|
D|----------------------------------------------------|
A|----------------------------------------------------|
E|----------------------------------------------------|

E|--10----------------10----------------10.---8--8----|
B|--------11----------------11------------------------|
G|--------------10----------------10------------------|
D|----------------------------------------------------|
A|----------------------------------------------------|
E|----------------------------------------------------|

E|--8-----------------8-----------------8.----6--6----|
B|--------10----------------10------------------------|
G|--------------10----------------10------------------|
D|----------------------------------------------------|
A|----------------------------------------------------|
E|----------------------------------------------------|

E|--6-----------------6-----------------6.----10-10---|
B|--------8-----------------8-------------------------|
G|--------------7-----------------7-------------------|
D|----------------------------------------------------|
A|----------------------------------------------------|
E|----------------------------------------------------|

E|--10----------------10----------------10.---10-10---|
B|--------10----------------10------------------------|
G|--------------10----------------10------------------|
D|----------------------------------------------------|
A|----------------------------------------------------|
E|----------------------------------------------------|

E|--10----------------10----------------10.---8--8----|
B|--------11----------------11------------------------|
G|--------------10----------------10------------------|
D|----------------------------------------------------|
A|----------------------------------------------------|
E|----------------------------------------------------|

E|--8-----------------8-----------------8.----9--9----|
B|--------10----------------10------------------------|
G|--------------10----------------10------------------|
D|----------------------------------------------------|
A|----------------------------------------------------|
E|----------------------------------------------------|

E|--9-----------------------9s------------------------|
B|--------10----------10------------------------------|
G|--------------9-------------------------------------|
D|----------------------------------------------------|
A|----------------------------------------------------|
E|----------------------------------------------------|

          Dm
Chega pra cá, meu bem, que eu vou te ensinar
        C
A nossa dança do Estado do Pará
      Dm
É o calypso que chegou para ficar
        C
Nesse swing você também vai entrar

Gm                      Bb                  F
Mexa o pezinho e vai soltando todo corpo de vez
           Gm
Depois me abraça com carinho
          A                      Dm
E a gente pode fazer tudo outra vez

Gm                   Bb                    F
Fique a vontade pra rodar e pra girar no salão
         Gm                    A                  Dm  A
Que essa dança vai mexer com você e com o seu coração

         Dm
Não pára não, vem cá, me dá a tua mão
          F
Quero que sinta toda essa emoção
          Dm
Cavalo manco, agora, eu vou te ensinar
Gm                         A                  Dm  A
Isso e muito mais, você só vai encontrar no Pará
Composição de Carla Maues / Josiel
Colaboração e revisão:
  • Jaymes Mour
  • VLADIMIR KLIMEIKA
  • Gilberto Cordeiro
91.507 exibições
    • ½ Tom
    • A
    • Bb
    • B
    • C
    • Db
    • D
    • Eb
    • E
    • F
    • F#
    • G
    • Ab
  • Adicionar à lista

    0 comentários

    Mostrar mais comentários

    Conseguiu tocar?

    1 Tocaram 0 Ainda não

    Grave um vídeo tocando Dançando Calypso e mande pra gente!

    00:00 / 00:00
    outros vídeos desta música
    repetir qualidade Automático
    Outros vídeos desta música
    00:00 / 00:00
    Automático

    Cifra Club Pro

    Aproveite o Cifra Club com benefícios exclusivos e sem anúncios
    Cifra Club Pro
    Aproveite o Cifra Club com benefícios exclusivos e sem anúncios
    OK