Cifra Club

Deja

Banda El Recodo De Cruz Lizárraga

Cifra: Principal (violão e guitarra)
Selo Cifra Club: esta cifra foi revisada para atender aos critérios oficiais da nossa Equipe de Qualidade.
tom: Am
E|-12-12-12-12-10-8-12-12-12-12-10-8-7----8-8-8-8-7--8-8-8-8-10-12-12-10|
B|------------------------------------8------------10-------------------|
G|----------------------------------------------------------------------|
D|----------------------------------------------------------------------|
A|----------------------------------------------------------------------|
E|----------------------------------------------------------------------|

tambien se repite dos veces

E|-10-8--10-8-8-7--7----7-8-10|
B|-------------------10-------|
G|----------------------------|
D|----------------------------|
A|----------------------------|
  C                 Em 
Deja decirte que te amo
                  F 
que nunca habia sentido
       G  
amor igual.

Am                            Em 
Que eres luz de un lindo amanecer
      F 
mil motivos por los que hoy
        G  
vive mi ser.

Am                          Em 
Que esres tu el aire al respirar
      F 
mil motivos de saber
           G  
lo que es amar.

C                                  Em 
Deja decirte palabras, palabras bonitas
F 
deja tocar con mis manos
         G  
tu cara bonita.

C                                  Em 
Deja morderte los lavios como una manzana
F                  E7 
deja que nuestra miradas
             G  
se metan al alma

Deja..........

Requinto...

Deja decirte palabras palabras binitas.....



Asi esta bien la rola.Y gracias a ATAME por
dejar que coperemos en esto.Y un besotote a mi novia
YUNUEN te amo.
Outros vídeos desta música
1.200 exibições
    • ½ Tom
    • Am
    • Bbm
    • Bm
    • Cm
    • C#m
    • Dm
    • Ebm
    • Em
    • Fm
    • F#m
    • Gm
    • G#m
  • Adicionar à lista

Afinação da cifra

Afinador online

    0 comentários

    Ver todos os comentários

    Conseguiu tocar?

    0 Tocaram 0 Ainda não

    Grave um vídeo tocando Deja e nos envie!

    Toque também

    1. Imagem do artista Calibre 50 Siempre te voy a querer Calibre 50
    2. Imagem do artista Banda Los Recoditos Mi último deseo Banda Los Recoditos
    3. Imagem do artista Banda Carnaval Pídeme Banda Carnaval
    4. Imagem do artista Julio Preciado Un rinconcito en el cielo Julio Preciado

    Entre para o Cifra Club PRO

    Tenha acesso a benefícios exclusivos no App e no Site

    • Chega de anúncios

    • Mais recursos no app do Afinador

    • Atendimento Prioritário

    • Aumente seu limite de lista

    • Ajude a produzir mais conteúdo

    Cifra Club Pro

    Aproveite o Cifra Club com benefícios exclusivos e sem anúncios
    Cifra Club Pro
    Aproveite o Cifra Club com benefícios exclusivos e sem anúncios
    OK