Cifra Club

Wipe Out

The Beach Boys

Cifra: Principal (violão e guitarra)
Selo Cifra Club: esta cifra foi revisada para atender aos critérios oficiais da nossa Equipe de Qualidade.
tom: C
    (X4)                   (X2)
G----------------  |  G----------------
D----------------  |  D----------------
A----------------  |  A-0-3-4-5-5-5-3-0
E-0-3-4-5-5-5-3-0  |  E----------------
    (+X2)
G----------------  | G-----------------
D----------------  | D--0-1-2-2-2-0----
A----------------  | A-2-----------2-0-
E-0-3-4-5-5-5-3-0  | E-----------------

G----------------  | G----------------
D----------------  | D----------------
A-3-4-5-5-5-0----  | A----------------
E----------------  | E-0-3-4-5-5-5-3-0

G--------   Depois eh so abafar e tocar as seguintes
D--------   notas AxxxxAxxxxDxxxxAxxxxAxxxxExxxxA
A--------
E-5-3-0-5
Outros vídeos desta música
    12.082 exibições
      • ½ Tom
      • A
      • Bb
      • B
      • C
      • Db
      • D
      • Eb
      • E
      • F
      • F#
      • G
      • Ab
    • Adicionar à lista

    Afinação da cifra

    Afinador online

      0 comentários

      Ver todos os comentários

      Entre para o Cifra Club PRO

      Tenha acesso a benefícios exclusivos no App e no Site

      • Chega de anúncios

      • Badges exclusivas

      • Mais recursos no app do Afinador

      • Atendimento Prioritário

      • Aumente seu limite de lista

      • Ajude a produzir mais conteúdo

      Cifra Club Pro

      Aproveite o Cifra Club com benefícios exclusivos e sem anúncios
      Cifra Club Pro
      Aproveite o Cifra Club com benefícios exclusivos e sem anúncios
      Ops (: Contenido disponible sólo en portugués.
      OK