Cifra Club

Aprenda

Soul Love

Beady Eye

Cifra: Principal (violão e guitarra)
Tom: E
       G#4  G5-   F#5  F5+
E|-------------------------
A|--11---10----9----8------
D|--11---11----11---11-----
G|-------------------------
B|-------------------------
E|-------------------------

      E5  Eb5+   C#5   A5
E|-------------------5----------------
A|--7---6------4-----7----------------
D|--9---9------6----------------------
G|------------------------------------
B|------------------------------------
E|------------------------------------

INTRO: (G#4  G5- F#5  F5+)

(G#4  G5- F#5  F5+)
Get up off your knees my friend
Promise never to pretend
You're the apple of my eye
Spread your wings and learn to fly
All I know is you can be
Everything you want to be
Life is short, so don't be shy
Tears of joy is all you'll find

     E5          Eb5+
Soul Love,  Soul Love

C#5              A5               E5
Come in to my world, It's all for you
             Eb5+
Everything I do
C#5
  It's all for you

(PAUSA)
You can never be too sure
What or who's behind your door

(G#4  G5- F#5  F5+)
Watch the people gather round
The circus has just come to town
All I know is I can be
Everything I want to be
Life is short, so don't be shy
Spread your wings and learn to fly

     E5          Eb5+
Soul Love,  Soul Love

C#5              A5               E5
Come in to my world, It's all for you
             Eb5+
Everything I do
C#5
  It's all for you

     E5          Eb5+
Soul Love,  Soul Love

C#5              A5               E5
Come in to my world, It's all for you
             Eb5+
Everything I do
C#5
  It's all for you

SOLO: BASE (C#5)

(2x)

E|----------------------------------
A|----------------------------------
D|-11--11--9--9--13--13--11--11-----
G|--9---9--8--8--11--11---9---9-----
B|----------------------------------
E|----------------------------------

     E5          Eb5+
Soul Love,  Soul Love
C#5              A5               E5
Come in to my world, It's all for you
             Eb5+
Everything I do

C#5
  It's all for you

It's all for you...

All for you...

It's all for you
Composição de Liam Gallagher
Colaboração e revisão:
  • Eduardo Santos
2.534 exibições
    • ½ Tom
    • A
    • Bb
    • B
    • C
    • Db
    • D
    • Eb
    • E
    • F
    • F#
    • G
    • Ab
  • Adicionar à lista

    0 comentários

    Mostrar mais comentários

    Conseguiu tocar?

    0 Tocaram 0 Ainda não

    Grave um vídeo tocando Soul Love e mande pra gente!

    00:00 / 00:00
    outros vídeos desta música
    repetir qualidade Automático
    Outros vídeos desta música
    00:00 / 00:00
    Automático

    Cifra Club Pro

    Aproveite o Cifra Club com benefícios exclusivos e sem anúncios
    7 dias grátis
    Cifra Club Pro
    Aproveite o Cifra Club com benefícios exclusivos e sem anúncios
    7 dias grátis
    OK