Cifra Club

How Deep Is Your Love

Bee Gees

Cifra: Principal (violão e guitarra)
Selo Cifra Club: esta cifra foi revisada para atender aos critérios oficiais da nossa Equipe de Qualidade.
tom: Eb (forma dos acordes no tom de D) Capotraste na 1ª casa
[Intro] D  D7M  G7M  G9/A  
        D  D7M  G7M  G9/A  

[Tab - Intro]

Parte 1 de 2
   D               D7M     
E|-----X-0---2-X-------X-0---2-X------------|
B|-3---3-------3---2---2-------2------------|
G|---2-X-------X-2---2-X-------X--2---------|
D|-0---X---0---X---0---X---0---X------------|
A|-----X-------X-------X-------X------------|
E|-----X-------X-------X-------X------------|

Parte 2 de 2
   G7M               G9/A
E|-----X-2---2--X----5---5--------5-5-------|
B|-3---3--------3----3---3--------3-3-------|
G|---0-X--------X----4---4--------4-4-------|
D|-----X--------X----5---5--------5-5-------|
A|-----X--------X----0---0---0-0----X--0----|
E|-3-------3------3------X----------X-------|

[Primeira Parte]

[Tab - Primeira Parte]

Parte 1 de 4
   D       F#m7    Em7     B7     
E|-2---2-----2-2-------0-----2-2------------|
B|-3---3-----2-2---3---3-----4-4------------|
G|-2---2-----2-2---0---0-----2-2------------|
D|-0---X-0-----2---2---2-----4-4------------|
A|-----X-------X-------X---2---X-2----------|
E|-----X---2---X-2-0---X-0-----X------------|

Parte 2 de 4
   Em7     F#7     G9/A    
E|-----0-----2-2-------5-----5-5------------|
B|-3---3-----2-2---3---3-----3-3------------|
G|-0---0-----3-3---4---4-----4-4------------|
D|-2---2-----2-2---5---5-------5------------|
A|-----X-------X---0---X-0-0---X-0----------|
E|-0---X-0-2---X-2-----X-------X------------|

Parte 3 de 4
   D       F#m7    Bm7     
E|-2---2-----2-2-------2-----2-2------------|
B|-3---3-----2-2---3---3-----3-3------------|
G|-2---2-----2-2---2---2-----2-2------------|
D|-0---X-0-----2---4---4-------4------------|
A|-----X-------X---2---X-2-2---X-2----------|
E|-----X---2---X-2-----X-------X------------|

Parte 4 de 4
   Em7             G9/A
E|-----0-----0-0-------5-----5-5------------|
B|-3---3-----3-3---3---3-----3-3------------|
G|-0---0-----0-0---4---4-----4-4------------|
D|-2---2-----2-2---5---5-------5------------|
A|-----X-------X---0---X-0-0---X-0----------|
E|-0---X-0-0---X-0-----X-------X------------|

            D            F#m7    Em7
I know your eyes in the morning Sun
B7          Em7              
I feel you touch me
        F#7     G9/A 
In the pouring rain
         D               
And the moment that you
 F#m7   Bm7
Wander far from me
         Em7                  G9/A
I wanna feel you in my arms again

[Segunda Parte]

[Tab - Segunda Parte]

Parte 1 de 4
   G7M             F#m7 
E|---------------------2-----2-2------------|
B|-3---3-----3-3---2---2-----2-2------------|
G|-4---4-----4-4---2---2-----2-2------------|
D|-4---4-----4-4---4---4-------4------------|
A|-----X-------X-------X-------X------------|
E|-3---X-3-3---X-3-2---X-2-2---X-2----------|

Parte 2 de 4
   Em7           C7(9) 
E|-----0-----0-0----------------------------|
B|-3---3-----3-3-3-----3-----3-3------------|
G|-0---0-----0-0-3-----3-----3-3------------|
D|-2---2-----2-2-2-----2-----2-2------------|
A|-----X-------X-3-----X-3-3---X-3----------|
E|-0---X-0-0---X-------X-------X------------|

Parte 3 de 4
   F#m7            G9/A
E|-----2-----2-2-------5-----5-5------------|
B|-2---2-----2-2---3---3-----3-3------------|
G|-2---2-----2-2---4---4-----4-4------------|
D|-4---4-----4-4---5---5-------5------------|
A|-----X-------X---0---X-0-0---X-0----------|
E|-2---X-2-2---X-0-----X-------X------------|

         G7M             F#m7  
And you come to me on a summer breeze
         Em7                        
Keep me warm in your love
          C7(9) 
Then you softly leave
          F#m7            G9/A    
And it's me you need to show

[Refrão]

Parte 1 de 5
   D               D7M
E|-----X------------------------------------|
B|-----3-2---0-------3---2---0--------------|
G|---2-X---------2---------------2----------|
D|-0---X---0---X---0---X---0----------------|
A|-----X-------X-------X-------X------------|
E|-----X-------X-------X-------X------------|

Parte 2 de 5
   G7M           Gm6   
E|-------2----------------------------------|
B|-----3-----3-----3---3-----3-3------------|
G|-2h4-X-----------3---3-----3-3------------|
D|-----X-------X---2---2-----2-2------------|
A|-----X-------X-------X-------X------------|
E|-3---X---3---X-3-3---X-3-3---X-3----------|

Parte 3 de 5
   D7M             C6(9) 
E|-2---2-----2-2----------------------------|
B|-2---2-----2-2-------3-----3-3------------|
G|-2---2-----2-2-------2-----2-2------------|
D|-0---X-0-0---X-0-----2-----2-2------------|
A|-----X-------X---3---X-3-3---X-3----------|
E|-----X-------X-------X-------X------------|

Parte 4 de 5
   B7
E|------------------------------------------|
B|-4---4-----4-4---4---4-----4-4------------|
G|-2---2-----2-2---2---2-----2-2------------|
D|-4---4-----4-4---4---4-----4-4------------|
A|-2---X-2-2---X-2-2---X-2-2---X-2----------|
E|-----X-------X-------X-------X------------|

Parte 5 de 5
   Em7             Gm6  
E|-----0-----0-0----------------------------|
B|-3---3-----3-3---3---3-----3-3------------|
G|-0---0-----0-0---3---3-----3-3------------|
D|-2---2-----2-2---2---2-----2-2------------|
A|-----X-------X-------X-------X------------|
E|-0---X-0-0---X-0-3---X-3-3---X-3----------|

                  D        
How deep is your love (Is your love)
     D7M
How deep is your love?
G7M               Gm6
I really mean to learn
              D7M                 
'Cause we're living
               C6(9) 
In a world of fools
             B7
Breaking us down
                             Em7
When they all should let us be
      Gm6
We belong to you and me

[Primeira Parte]

D      F#m7     Em7
  I believe in you
 B7           Em7        F#7  G9/A    
You know the door to my very soul
            D           
You're the light
       F#m7     Bm7
In my deepest, darkest hour
           Em7            G9/A 
You're my saviour when I fall

[Segunda Parte]

         G7M                 
And you may not think
        F#m7
That I care for you
           Em7                     
When you know down inside
        C7(9) 
That I really do
          F#m7            G9/A 
And it's me you need to show

How deep is your love

[Refrão]

     D                     
How deep is your love (Is your love)
     D7M
How deep is your love?
G7M               Gm6
I really mean to learn
              D7M                   
'Cause we're living
               C6(9)
In a world of fools
             B7
Breaking us down
                             Em7
When they all should let us be
      Gm6
We belong to you and me

( D  F#m7  Em7  B7 )
( Em7  F#7  G9/A )
( D  F#m7  Bm7  Em7  G9/A )

[Segunda Parte]

         G7M             F#m7  
And you come to me on a summer breeze
         Em7                         
Keep me warm in your love
          C7(9) 
Then you softly leave
          F#m7            G9/A    
And it's me you need to show

How deep is your love

[Refrão Final]

[Tab - Passagem Refrão Final]

Parte 1 de 2
   D       F#m7    G9/A     
E|-2---2-----2-2-------5-----5-5-------5----|
B|-3---3-----2-2---3---3-----3-3-------3----|
G|-2---2-----2-2---4---4-----4-4-------4----|
D|-0---X-0-----2---5---5-----5-5-------5----|
A|-----X-------X---0---X-0-0---X-0-0---X-0-0|
E|-----X---2---X-2-----X-------X-------X----|

Parte 2 de 2
E|-5--5-------------------------------------|
B|-3--3-------------------------------------|
G|-4--4-------------------------------------|
D|-5--5-------------------------------------|
A|----X-0-----------------------------------|
E|----X-------------------------------------|

     D                      
How deep is your love
     D7M
How deep is your love?
G7M               Gm6
I really mean to learn
              D7M                   
'Cause we're living
               C6(9)
In a world of fools
             B7
Breaking us down
                             Em7
When they all should let us be
      Gm6             D  F#m7  G9/A
We belong to you and me

     D                     
How deep is your love?
     D7M
How deep is your love?
G7M               Gm6
I really mean to learn
              D7M                  
'Cause we're living
               C6(9)
In a world of fools
             B7
Breaking us down
                             Em7
When they all should let us be
      Gm6             D  F#m7  G9/A
We belong to you and me

[Final] D  D7M  G7M  Gm6
        D  C6(9)  B7  Em7
        Gm6  D  F#m7  G9/A
Outros vídeos desta música
    1.414.173 exibições
    • Simplificar cifra
      • ½ Tom
      • A
      • Bb
      • B
      • C
      • Db
      • D
      • Eb
      • E
      • F
      • F#
      • G
      • Ab
    • Adicionar à lista

    Afinação da cifra

    Afinador online

      0 comentários

      Ver todos os comentários

      Entre para o Cifra Club PRO

      Tenha acesso a benefícios exclusivos no App e no Site

      • Chega de anúncios

      • Badges exclusivas

      • Mais recursos no app do Afinador

      • Atendimento Prioritário

      • Aumente seu limite de lista

      • Ajude a produzir mais conteúdo

      Capítulos
      • Apresentação
      • Dicas Capotraste
      • Tocando a Música
      • Acordes Introdução
      • Tocando Introdução
      • Ensinando Introdução
      • Acordes Primeira Parte
      • Tocando Primeira Parte
      • Ensinando Primeira Parte
      • Acordes Segunda Parte
      • Tocando Segunda Parte
      • Ensinando Segunda Parte
      • Acordes Refrão
      • Tocando Refrão
      • Ensinando Refrão
      • Tocando Passagem Refrão Final
      • Ensinando Passagem
      • Encerramento

      Cifra Club Pro

      Aproveite o Cifra Club com benefícios exclusivos e sem anúncios
      Cifra Club Pro
      Aproveite o Cifra Club com benefícios exclusivos e sem anúncios
      Ops (: Contenido disponible sólo en portugués.
      OK