Cifra Club

Aprenda

I Started A Joke

Bee Gees

Cifra: Versão 2 (violão e guitarra)
tom: G
Obs.: Durante os versos a música também é tocada conforme a
      introdução! Valeu.


Intro (2x):

                   G
e|-----------------3----------    
b|-----------------3----------
g|-----------------0----------
d|-----------------0---------
a|----5--3--2----- 2------------
e|--------------5--3-----------

        Bm 
e|-------2---------------------
b|-------3---------------------
g|-------4---------------------
d|-------4---------------------
a|----0--2---------------------
e|-----------------------------

          C
e|-----------------------------
b|--------1--------------------
g|--------0--------------------
d|--------2--------------------
a|--------3--------------------
e|----3------------------------

         D7
e|--------2--------------------
b|--------1--------------------
g|--------2--------------------
d|--------0--------------------
a|----3------------------------
e|-----------------------------

e|-----------------------------    
b|-----------------------------
g|-----------------------------
d|-----------------------------
a|----5--3--2------------------
e|--------------5--------------

Verse 1:
G              Bm
I started a joke
 C                 D7             G Bm C
Which started the whole world crying
    D7         G  Bm  C
But I didn't see
          D7          G  Bm  C  D7
That the joke was on me, oh no
a|----5--3--2------------------
e|--------------5-------------

Verse 2:
G              Bm
I started to cry
  C                 D7               G Bm C
Which started the whole world laughing
       D7         G  Bm  C  
Oh if I'd only seen
          D7          G
That the joke was on me

Bridge:
Em               Bm
I looked at the sky
            C             G
Running my hands over my eyes
    Bm             Em
And I fell out of bed
            Am                        D7
Hurting my head from things that I said

Verse 3:
      G            Bm
'Till I finally died
 C                 D7              G Bm C
Which started the whole world living
       D7         G  Bm  C
Oh if I'd only seen 
          D7          G
that the joke was on me

Bridge:
Em                Bm
I looked at the sky
           C              G
Running my hands over my eyes
    Bm              Em
And I fell out of bed
            Am                        D7
Hurting my head from things that I said

Verse 3:
      G           Bm
'Till I finally died
 C                 D7              G Bm C
Which started the whole world living
       D7         G  Bm  C
Oh if I'd only seen 
          D7          G   Bm    C   D7
that the joke was on me,  ih,   ih,  ih
G   Bm   C    D7
Oh, oh,  oh,  oh
    G
Oh no,no!
Composição de Barry Gibb / Maurice Gibb / Robin Gibb
Colaboração e revisão:
  • Umberto Maciel
39.589 exibições
    • ½ Tom
    • A
    • Bb
    • B
    • C
    • Db
    • D
    • Eb
    • E
    • F
    • F#
    • G
    • Ab
  • Adicionar à lista

    0 comentários

    Ver todos os comentários
    00:00 / 00:00
    Outros vídeos desta música
    Repetir Qualidade Automático
    Outros vídeos desta música
    00:00 / 00:00
    Automático

    Cifra Club Pro

    Aproveite o Cifra Club com benefícios exclusivos e sem anúncios
    Cifra Club Pro
    Aproveite o Cifra Club com benefícios exclusivos e sem anúncios
    OK