Cifra Club

Aprenda

Another Lonely Day

Ben Harper

Cifra: Principal (violão e guitarra)
Já pensou em usar uma coleção de roupas do Cifra Club? Responda as perguntas abaixo e nos ajude nessa missão! →
tom: C
Intro and Verse:( C Am Em G)
Fingerpicked--
  (C)        (Am)         (Em)         (G)
e|--------------------------------------------------------------------------|
G|------1----1----1------1---1-----------0-----0-----------2------2----2------|
B|-----0----0----0-------2---2-----------0-----0-----------0------0----0------|
D|---2----------------2-----------------------------------------------------|
A|--3---3--3---2----0------0----0-----2-----------------2------------2-------|
E|----------------------------------0--------0-----0--3--------3-------------|

Chorus:(F Am G)
  (F)         (Am)        (G)
e|----------------------------3-----0h3--3-|
G|----1-----1-----1-----1-----3-----0h3--3-|
B|----2-----2-----2-----2-----0----------0-|
D|-3-----3-----2-----2-----0-----0-------0-|
A|-0-----0-----0-----0-----2-----2-------2-|
E|-------------------------3-----3-------3-|
Verse:
 (C Am Em G)
Yes indeed I'm alone again
and here comes emptiness crashing in
it's either love or hate 
I can't find in between
cause I've been with witches
and I have been with a queen
Chorus:
(F Am G)
It wouldn't have worked out any way
so now it's just another lonely day
further along we just may
but for now it's just another lonely day
Verse:
 (C Am Em G)
Wish there was something 
I could say or do
I can resist anything
but temptation from you
but I'd rather walk alone
then chase you around
I'd rather fall myself 
then let you drag me down
Chorus:
Verse:
 (C Am Em G)
Yesterday seems like a life ago
cause the one I love 
today I hardly know
you I held so close in my heart oh dear
grow further from me 
with every fallen tear
 
Chorus:
Composição de Ben Harper
74.254 exibições
    • ½ Tom
    • A
    • Bb
    • B
    • C
    • Db
    • D
    • Eb
    • E
    • F
    • F#
    • G
    • Ab
  • Adicionar à lista

    0 comentários

    Ver todos os comentários

    Conseguiu tocar?

    6 Tocaram 0 Ainda não

    Grave um vídeo tocando Another Lonely Day e nos envie!

    00:00 / 00:00
    Outros vídeos desta música
    Repetir Qualidade Automático
    Outros vídeos desta música
    00:00 / 00:00
    Automático

    Cifra Club Pro

    Aproveite o Cifra Club com benefícios exclusivos e sem anúncios
    Cifra Club Pro
    Aproveite o Cifra Club com benefícios exclusivos e sem anúncios
    OK